» » »

Kutless, All Who Are Thirsty Tabs (ver.2)

Artists:  A B C D E F G H I J K L M N O P Q R S T U V W X Y Z # 

All Who Are Thirsty Tabs (ver.2)

Kutless Tabs
 Rating:
4.2/5 (5 votes)
All Who Are Thirsty lessons Tabs too difficult? Try these video lessons and learn fast
                e-------------7-    ------------------------7-|
B--8-7h8p7h8----    ---7-7h8p7h8-7---7--8-10--|
G-7-7----------- x2 --7-7-----------7-7-------|
D---------------    --------------------------|
A---------------    --------------------------|
E---------------    --------------------------|

                       These are 10s and 12s
e------------5-     ------------------|
B--8--7h8p7h8--     --101010121212888-|
G-5-5---------- x2  ------------------|
D--------------     ------------------|
A--------------     ------------------|
E--------------     ------------------|


Verse 1 (Play verse 2 same as verse 1)

              G
All who are thirsty
             Bm7
all who are weak
               C
come to the fountain
                         Am   G   C
dip your heart in the stream of life
                       G
let the pain and the sorrow
            Bm7
be washed away,
                    C2
in the wave of his mercy
               Am G  C
as deep cries out to deep, we sing


Chorus:


e-----5---   ----5-----|
B------8--   -----8----|
G--8----7-x2 --8---7---|x2   repeat
D-7-7-----   -5-5------|
A---------   ----------|
E---------   ----------|
            
Submit corrections

comments powered by Disqus
↑ Back to top | Kutless Tabs for All Who Are Thirsty. Lyrics for acoustic guitar and electric guitar. Tablatures and chords are parodies/interpretations of the original songs. You may use it for private study, scholarship, research or language learning purposes only