» » »

Kutless, All Of The Words Tabs (ver.2)

Artists:  A B C D E F G H I J K L M N O P Q R S T U V W X Y Z # 

All Of The Words Tabs (ver.2)

Kutless Tabs
 Rating:
4.2/5 (5 votes)
All Of The Words lessons Tabs too difficult? Try these video lessons and learn fast
1
                -------------------------------------------------------------------------------
-------------------------------------------------------------------------------
Great 
DS-1 distortion pedal with the level all the way down. And just a little of delay..

Tuning:standard

  intro:
e|-------------------------------------------------------------------------|
B|-------------------------------------------------------------------------|
G|----13-13-11-11-10-10----------10-13-13-11-11-10-10---------10-13-13-11--|
D|-11--------------------11-11-13----------------------11-11-13------------|
A|-------------------------------------------------------------------------|
E|-------------------------------------------------------------------------|

e|-------------------------------------------------------------------------|
B|-------------------------------------------------------------------------|
G|-11-10-10---------10-------------------10-10-----------------------------|
D|---------11-11-13----10-10-11-11-13-13-------13-11~~---------------------|
A|-------------------------------------------------------------------------|
E|-------------------------------------------------------------------------|

  0:36 (verse)
e|--4~~~~~---------6~~~~~--------------------------------------------------|
B|--4~~~~~---------6~~~~~--------------------------------------------------|
G|--6~~~~~---------8~~~~~--------------------------------------------------|
D|--6~~~~~---------8~~~~~--------------------------------------------------|
A|--4~~~~~---------6~~~~~--------------------------------------------------|
E|-------------------------------------------------------------------------|

e|--4~~~~~---------6~~~~~--------------------------------------------------|
B|--4~~~~~---------6~~~~~--------------------------------------------------|
G|--6~~~~~---------8~~~~~--------------------------------------------------|
D|--6~~~~~---------8~~~~~--------------------------------------------------|
A|--4~~~~~---------6~~~~~--------------------------------------------------|
E|-------------------------------------------------------------------------|

  chorus: r=11th fret
e|-44444---44444---6666---9999---------------------------------------------|
B|-44444---77777---6666---9999---------------------------------------------|
G|-66666---66666---6666---rrrr---------------------------------------------|
D|-66666---44444---8888---rrrr---------------------------------------------|
A|-44444---44444---8888---9999---------------------------------------------|
E|-----------------6666----------------------------------------------------|

e|-44444---44444---6666---9999---------------------------------------------|
B|-44444---77777---6666---9999---------------------------------------------|
G|-66666---66666---6666---rrrr---------------------------------------------|
D|-66666---44444---8888---rrrr---------------------------------------------|
A|-44444---44444---8888---9999---------------------------------------------|
E|-----------------6666----------------------------------------------------|

  (Play the intro for the interlude.)

The second verse has a little more guitar in it thats playing this..
  1:35 (verse 2)
e|-------------------------------------------------------------------------|
B|-------------------------------------------------------------------------|
G|----13-13-11-11-10---13-13-11-11-10---13-13-11-11-10---------------------|
D|-11----------------------------------------------------10-10-11-11-13-13-|
A|-------------------------------------------------------------------------|
E|-------------------------------------------------------------------------|

e|--------------4~~~----6~~~----4~~~----6~~~-------------------------------|
B|--------------4~~~----6~~~----4~~~----6~~~-------------------------------|
G|-10-10--------6~~~----8~~~----6~~~----8~~~-------------------------------|
D|-------13-11--6~~~----8~~~----6~~~----8~~~-------------------------------|
A|--------------4~~~----6~~~----4~~~----6~~~-------------------------------|
E|-------------------------------------------------------------------------|

chorus: r=11th fret
e|-44444---44444---6666---9999---------------------------------------------|
B|-44444---77777---6666---9999---------------------------------------------|
G|-66666---66666---6666---rrrr---------------------------------------------|
D|-66666---44444---8888---rrrr---------------------------------------------|
A|-44444---44444---8888---9999---------------------------------------------|
E|-----------------6666----------------------------------------------------|

e|-44444---44444---6666---9999---------------------------------------------|
B|-44444---77777---6666---9999---------------------------------------------|
G|-66666---66666---6666---rrrr---------------------------------------------|
D|-66666---44444---8888---rrrr---------------------------------------------|
A|-44444---44444---8888---9999---------------------------------------------|
E|-----------------6666----------------------------------------------------|

  2:24 (Bridge)
e|-6~~--4~~--6~~--6~~--4~~--6~~--4~~--6~~----------------------------------|
B|-6~~--4~~--6~~--6~~--4~~--6~~--4~~--6~~----------------------------------|
G|-6~~--6~~--8~~--8~~--6~~--8~~--6~~--8~~----------------------------------|
D|-8~~--6~~--8~~--8~~--6~~--8~~--6~~--8~~----------------------------------|
A|-8~~--4~~--6~~--6~~--4~~--6~~--4~~--6~~----------------------------------|
E|-6~~---------------------------------------------------------------------|

chorus:r=11th fret(For the first lines of this chorus just hit chords once)
e|-44444---44444---6666---9999---------------------------------------------|
B|-44444---77777---6666---9999---------------------------------------------|
G|-66666---66666---6666---rrrr---------------------------------------------|
D|-66666---44444---8888---rrrr---------------------------------------------|
A|-44444---44444---8888---9999---------------------------------------------|
E|-----------------6666----------------------------------------------------|

e|-44444---44444---6666---9999---------------------------------------------|
B|-44444---77777---6666---9999---------------------------------------------|
G|-66666---66666---6666---rrrr---------------------------------------------|
D|-66666---44444---8888---rrrr---------------------------------------------|
A|-44444---44444---8888---9999---------------------------------------------|
E|-----------------6666----------------------------------------------------|

Play regular chorus one more time then thats the end..plz tell me if theres something 
or that could be better..and i know this isn't the tuning they do it in but i tried to 
it out in standard.

| /  slide up
| \  slide down
| h  hammer-on
| p  pull-off
| ~  vibrato
| +  harmonic
| x  Mute note
===============================================================================
            
Submit corrections

comments powered by Disqus
↑ Back to top | Kutless Tabs for All Of The Words. Lyrics for acoustic guitar and electric guitar. 1 Tablatures and chords are parodies/interpretations of the original songs. You may use it for private study, scholarship, research or language learning purposes only