» » »

Kutless, All Alone Tabs (ver.1)

Artists:  A B C D E F G H I J K L M N O P Q R S T U V W X Y Z # 

All Alone Tabs (ver.1)

Kutless Tabs
 Rating:
4.3/5 (6 votes)
All Alone lessons Tabs too difficult? Try these video lessons and learn fast
1
                intro: piano and violins

verse 1: piano and violins
icy chills round your heart a heart that’s made of stone it seems like life is out to 
you to destroy what you want

verse 1: guitar 1
eb------------------------------------------------------------------------->
Bb------------------------------------------------------------------------->
Gb------------------------------------------------------------------------->
Db----------/77-5-4~--77-5-4~--5-4-0~-----------/77-5-4~--77-5-4~--5-4-0~-->
Ab-2--2~--------------00-0-0~----------2--2~--------------00-0-0~---------->
Db-----------00-0-0~-----------5-5-5~------------00-0-0~-----------5-5-5~-->
I know that, that you blame Me for all that you go through it could be so different if 
would just let go

chorus: guitar 2
eb-------------0000-------------0000--------------------------------0000--->
Bb-------------0000-------------0000--------------------------------0000--->
Gb-4-4-------2-2222-4-4-------2-2222-4-4----------------4-4-------2-22224~->
Db-4-4--5-5--2-2222-4-4--5-5--2-2222-4-4--5-5--0-000777-4-4--5-5--2-22224~->
Ab-2-2--5-5--0-0000-2-2--5-5--0-0000-2-2--5-5--0-000777-2-2--5-5--0-00002~->
Db------5-5--------------5-5--------------5-5--0-000777------5-5----------->
you’re all alone, running out of ways to hold on to hope, and it always slips away 
all alone, but you don’t have to pretend to cope, there is a brighter way

fill: guitar 1
eb------------------------------------>
Bb------------------------------------>
Gb------------------------------------>
Db----------/77-5-4~--77-5-4~--5-4-0~->
Ab-2--2~--------------00-0-0~--------->
Db-----------00-0-0~-----------5-5-5~->

verse 2: guitar 1
eb------------------------------------------------------------------------->
Bb------------------------------------------------------------------------->
Gb------------------------------------------------------------------------->
Db----------/77-5-4~--77-5-4~--5-4-0~-----------/77-5-4~--77-5-4~--5-4-0~-->
Ab-2--2~--------------00-0-0~----------2--2~--------------00-0-0~---------->
Db-----------00-0-0~-----------5-5-5~------------00-0-0~-----------5-5-5~-->
if you would change your perspective you’d see that it is true life is not always what 
want sometimes it’s hard to bear

verse 2: guitar 1
eb------------------------------------------------------------------------->
Bb------3-------3-------0-------------------3-------3-------0-------------->
Gb---4---4---4---4---2---2--------7------4---4---4---4---2---2--------7-7-->
Db--4-----4-4-----4-2-----2--0-7---7----4-----4-4-----4-2-----2--0-7---7-7->
Ab-2---------------0----------------5--2---------------0------------------->
Db---------0---------------5-------------------0---------------5----------->
I’d be with you, and help you in all that you go through I love you, let me change your 

---REPEAT CHORUS

bridge: guitar 2                    gt. 1
eb---------------------------------|------------------------>
Bb---------------------------------|3~~---------3~~--------->
Gb-44447777--------44447777--------|4~~---7~~---4~~---7~~--->
Db-44447777000077774444777700007777|4~~---7~~---4~~---7~~--->
Ab-22225555000077772222555500007777|2~~---5~~---2~~---5~~--->
Db-----555500007777----555500007777|------5~~---------5~~--->
oh, there is a brighter way yeah, there is a brighter way oh, oh oh...

fill: guitar 1
eb--------------------------------------------------->
Bb--------------------------------------------------->
Gb--------------------------------------------------->
Db-222-5-222-5-777770777770-222-5-222-5-777770777770->
Ab-222-5-222-5-777770777770-222-5-222-5-777770777770->
Db-222-5-222-5-777770777770-222-5-222-5-777770777770->
oh, oh, oh...

---REPEAT CHORUS

outro:
eb------------------------------------------------------------------>
Bb------------------------------------------------------------------>
Gb-44447777--------44447777--------44447777--------44447777--------->
Db-4444777700007777444477770000777744447777000077774444777700007777->
Ab-2222555500007777222255550000777722225555000077772222555500007777->
Db-----555500007777----555500007777----555500007777----555500007777->
a way, there is a brighter way yeah, there is a brighter way hold on to hope there is a 
way hold on to hope there is a brighter way
            
Submit corrections

comments powered by Disqus
↑ Back to top | Kutless Tabs for All Alone. Lyrics for acoustic guitar and electric guitar. 1 Tablatures and chords are parodies/interpretations of the original songs. You may use it for private study, scholarship, research or language learning purposes only