» » »

Hide Bass tabs (ver.1)

Artists:  A B C D E F G H I J K L M N O P Q R S T U V W X Y Z # 

Hide Bass tabs (ver.1)

K\\\'s Choice
Rating:
0/5 (0 votes)

Hard to play? Try these video lessons and learn fast.
                K's Choice - Hide


Intro:
e|-------------------|--3-3-3-3-3-3-3-3--|
B|--harm.------------|--3-3-3-3-3-3-3-3--|
G|--10---------------|-------------------|
D|-------------------|-------------------|
A|-------------------|-------------------|
E|--volume swell-----|-------------------|
 |  >...>...>...>...    >...>...>...>... |
G|-------------------|-------------------|
D|-------------------|-------------------|
A|-------------------|-------------------|
E|-------------------|-------------------|


e|--3-3-3-3-3-3-3-3--|--3-3-3-3-3-3-3-3--|
B|--4-4-4-4-4-4-4-4--|--5-5-5-5-5-5-5-5--|
G|-------------------|-------------------|
D|-------------------|-------------------|
A|-------------------|-------------------|
E|-------------------|-------------------|
 |  >...>...>...>...    >...>...>...>... |
G|-------------------|-------------------|
D|-------------------|-------------------|
A|-------------------|-------------------|
E|-------------------|-------------------|

                              Csus2         Gm      Eb  Bb      Csus2
e|--3-3-3-3-3-3-3-3--|-------------------|-------------------|-------------------|
B|--4-4-4-4-4-4-4-4--|--------3-3-3---3-3|----------6--------|--3-3--------------|
G|-------------------|--------5-5-5---5-5|--3-------8---7----|--5-5--------------|
D|-------------------|--------5-5-5---5-5|--5-------8---8----|--5-5--------------|
A|-------------------|--------3-3-3---3-3|--5-------6---8----|--3-3--------------|
E|-------------------|-------------------|--3-----------6----|-------------------|
 |  >...>...>...>...    >...>...>...>...    >...>...>...>...    >...>...>...>... |
G|-------------------|-------------------|-------------------|------3/5-5--5-5-5-|
D|-------------------|-------------------|-------------------|-------------------|
A|-------------------|--------3-3-3---3-3|----------6--------|--3-3--------------|
E|-------------------|-------------------|--3-----------6----|-------------------|


    Gm      Eb  Bb      C                   Gm      Eb  Bb      C      (guitar 2)
e|-------------------|-------------------|-------------------|----------3-3-3-3--|
B|----------6--------|--3-3--------------|----------6--------|--3-3-----3-3-3-3--|
G|--3-------8---7----|--5-5--------------|--3-------8---7----|--5-5--------------|
D|--5-------8---8----|--5-5--------------|--5-------8---8----|--5-5--------------|
A|--5-------6---8----|--3-3--------------|--5-------6---8----|--3-3--------------|
E|--3-----------6----|-------------------|--3-----------6----|-------------------|
 |  >...>...>...>...    >...>...>...>...    >...>...>...>...    >...>...>...>... |
G|-------------------|-------3-----------|-------------------|-------------------|
D|-------------------|---------5-3-------|-------------------|-------------------|
A|----------6--------|--3-3--------5-3---|----------6--------|--3-3---3-3-3-3-3--|
E|--3-----------6----|-----------------6-|--3-----------6----|-------------------|


    Gm      Eb  Am      D
e|-------------------|-------------------|-------------------|
B|----------6--------|--7-7-7-7-7-7-7-7--|--7-7-7-7-7-7-7-7--|
G|--3-------8---6----|--7-7-7-7-7-7-7-7--|--7-7-7-7-7-7-7-7--|
D|--5-------8---7----|--7-7-7-7-7-7-7-7--|--7-7-7-7-7-7-7-7--|
A|--5-------6---7----|--5-5-5-5-5-5-5-5--|--5-5-5-5-5-5-5-5--|
E|--3-----------5----|-------------------|-------------------|
 |  >...>...>...>...    >...>...>...>...    >...>...>...>... |
G|-------------------|-------------------|-------------------|
D|-------------------|-------------------|-------------------|
A|----------6--------|--5-5-5-5-5-5-5-5--|--5-5-5-5-5-5-5-5--|
E|--3-----------5----|-------------------|-------------------|
                                                      Watch

Verse:
    Gm                                                          Bb      Eb
e|-------------------|-------------------|-------------------|-------------------|
B|-------------------|-------------------|-------------------|--harm.------------|
G|-------------------|-------------------|-------------------|--12---------------|
D|-------------------|-------------------|-------------------|--12---------------|
A|-------------------|-------------------|-------------------|-------------------|
E|-------------------|-------------------|-------------------|--volume swell-----|
 |                                                                               |
G|-------------------|-------------------|-------------------|-------------------|
D|-------------------|-------------------|-------------------|-------------------|
A|-------------------|-------------------|-------------------|----------6-6-6-3--|
E|--3-3-3-3-3-3-3-3--|--3-3-3-3-3-3-3-3--|--3-3-3-3-3-3-3-5--|--6-6-6-6----------|
    me     I'm   coming   closer                 I   am   the  mood you're in to -

    Gm                                                          Bb      Eb
e|-------------------|-------------------|-------------------|-------------------|
B|-------------------|-------------------|-------------------|-------------------|
G|-------------------|-------------------|-------------------|-------------------|
D|-------------------|-------------------|-------------------|-------------------|
A|-------------------|-------------------|-------------------|-------------------|
E|-------------------|-------------------|-------------------|-------------------|
 |                                                                               |
G|-------------------|-------------------|-------------------|-------------------|
D|-------------------|-------------------|-------------------|-------------------|
A|-------------------|-------------------|-------------------|----------6-6-6-3--|
E|--3-3-3-3-3-3-3-3--|--3-3-3-3-3-3-3-3--|--3-3-3-3-3-3-3-5--|--6-6-6-6----------|
    night               Pretty poser                    Perfect  arma - geddon

    Gm                                                          Bb      Eb
e|-------------------|-------------------|-------------------|-------------------|
B|--harm.------------|-------------------|-------------------|-------------------|
G|--7----------------|-------------------|-------------------|-------------------|
D|--7----------------|-------------------|-------------------|-------------------|
A|-------------------|-------------------|-------------------|-------------------|
E|--volume swell-----|-------------------|-------------------|-------------------|
 |                                                                               |
G|-------------------|-------------------|-------------------|-------------------|
D|-------------------|-------------------|-------------------|-------------------|
A|-------------------|-------------------|-------------------|----------6-6-6-3--|
E|--3-3-3-3-3-3-3-3--|--3-3-3-3-3-3-3-3--|--3-3-3-3-3-3-3-5--|--6-6-6-6----------|
    bride         I  am  a  circle  it  feels  right   I am the one who swallows

    Gm                                                          Bb      Eb
e|-------------------|-------------------|-------------------|-----1-1--1----1---|
B|------------harm.--|-------------------|-------------------|-----3-1--4---4-4--|
G|------------12-----|-------------------|-------------------|-----3-3--3--3---3-|
D|------------12-----|-------------------|-------------------|-------------------|
A|-------------------|-------------------|-------------------|-------------------|
E|------------volume-|-swell-------------|-------------------|-------------------|
 |                                                                               |
G|-------------------|-------------------|-------------------|-------------------|
D|-------------------|-------------------|-------------------|-------------------|
A|-------------------|-------------------|-------------------|----------6-6-6-6\-|
E|--3-3-3-3-3-3-3-3--|--3-3-3-3-3-3-3-3--|--3-3-3-3-3-3-3-5--|--6-6-6-6----------|
    light            Multiplying   parasite             Perfect features perfect
Pre-chorus:
    Bbm     Ebsus2      Db      Gb          Bbm     Ebsus2      Db      Gb
e|--1---1------------|----------2---2----|--1------1---------|----------2---2----|
B|--2---2---6---6----|--6---6---2---2----|--2----2----4------|--6---6---2---2----|
G|--3---3---8---8----|--6---6---3---3----|--3--3--------3----|--6---6---3---3----|
D|--3---3---8---8----|--6---6---4---4----|--3----------------|--6---6---4---4----|
A|--1---1---6---6----|--4---4---4---4----|--1----------------|--4---4---4---4----|
E|--1---1------------|----------2---2----|--1----------------|----------2---2----|
 |                                                                               |
G|-------------------|-------------------|-------------------|-------------------|
D|-------------------|-------------------|-------------------|----------4-4-4-4--|
A|--1-1-1-1-6-6-6-6--|--4-4-4-4----------|--1-1-1-1-6-6-6-6--|--4-4-4-4----------|
E|-------------------|----------2-2-2-2--|-------------------|-------------------|
    sight     You  who  thought you had it  all     Lost your   leaves before the

    Db      B           Gb7     A           E                   E       D
e|-------------------|--2---2---5---5----|--0-0-0-0-0-0-0-0--|-------------------|
B|--6---6---4---4----|--2---2---5---5----|--0-0-0-0-0-0-0-0--|-------------------|
G|--6---6---4---4----|--3---3---6---6----|--1-1-1-1-1-1-1-1--|--9-9-9-9-7-7-7-7--|
D|--6---6---4---4----|--4---4---7---7----|--2-2-2-2-2-2-2-2--|--9-9-9-9-7-7-7-7--|
A|--4---4---2---2----|--4---4---7---7----|--2-2-2-2-2-2-2-2--|--7-7-7-7-5-5-5-5--|
E|-------------------|--2---2---5---5----|--0-0-0-0-0-0-0-0--|-------------------|
 |                                                                               |
G|-------------------|-------------------|-------------------|-------------------|
D|-------------------|-------------------|-------------------|-------------------|
A|--4-4-4-4-2-2-2-2--|----------0-0-0-0--|-------------------|--7-7-7-7-5-5-5-5--|
E|-------------------|--2-2-2-2----------|--0-0-0-0-0-0-0-0--|-------------------|
    fall You should have killed me You should have tried               Armageddon


Chorus:
    Gm      Eb          Gm      Eb          Gm      Eb          C       Eb/Bb
e|-------------------|-------------------|-------------------|-------------------|
B|----------8-8-8-8--|----------8-8-8-8--|----------8-8-8-8--|-------------------|
G|--3---3---8-8-8-8--|--3---3---8-8-8-8--|--3---3---8-8-8-8--|-------------------|
D|--5---5---8-8-8-8--|--5---5---8-8-8-8--|--5---5---8-8-8-8--|------10------10---|
A|--5---5---6-6-6-6--|--5---5---6-6-6-6--|--5---5---6-6-6-6--|----10--10--10--10-|
E|--3---3------------|--3---3------------|--3---3------------|--8-------6--------|
 |                                                                               |
G|-------------------|-------------------|-------------------|-------------------|
D|-------------------|-------------------|-------------------|-------------------|
A|----------6-6-6-6--|----------6-6-6-6--|----------6-6-6-6--|--3-3-3-3-6-6-6-6--|
E|--3---3------------|--3---3------------|--3---3------------|-------------------|
    bri  -  de          Hi   -  de          Hi   -  de                     Watch
                 Arma - geddon bride                     Arma - geddon bride

Verse:
    Gm                              Csus2   Gm                  Bb      Eb
e|-------------------|-------------------|-------------------|-------------------|
B|-------------------|--------------3-3--|-------------------|-------------------|
G|--3----------------|--------------5-5--|--3----------------|-------------------|
D|--5----------------|--------------5-5--|--5----------------|-------------------|
A|--5----------------|--------------3-3--|--5----------------|-------------------|
E|--3----------------|-------------------|--3----------------|-------------------|
 |                                                                               |
G|-------------------|-------------------|-------------------|-------------------|
D|-------------------|-------------------|-------------------|-------------------|
A|-------------------|--------------333--|-------------------|----------6-6-6-3--|
E|--3-3-3-3-3-3-3-3--|--3-3-3-3-3-3------|--3-3-3-3-3-3-3-5--|--6-6-6-6----------|
    me     Bright but blurry                           Yet you knew I've always   
    Gm                              Csus2   Gm                  Bb      Eb
e|-------------------|-------------------|-------------------|-----1-1--1----1---|
B|-------------------|--------------3-3--|-------------------|-----3-1--4---4-4--|
G|-------------------|--------------5-5--|--3----------------|-----3-3--3--3---3-|
D|-------------------|--------------5-5--|--5----------------|-------------------|
A|-------------------|--------------3-3--|--5----------------|-------------------|
E|-------------------|-------------------|--3----------------|-------------------|
 |                                                                               |
G|-------------------|-------------------|-------------------|-------------------|
D|-------------------|-------------------|-------------------|-------------------|
A|-------------------|--------------333--|-------------------|----------6-6-6-3--|
E|--3-3-3-3-3-3-3-3--|--3-3-3-3-3-3------|--3-3-3-3-3-3-3-5--|--6-6-6-6----------|
    been                In a hurry                     To con - taminate what's clean

    Bbm     F           C                   Eb
e|--1---1---1---1----|-------------------|-------------------|-------------------|
B|--2---2---1---1----|--5---5---5---5----|------6-------6----|--6----------------|
G|--3---3---2---2----|--5---5---5---5----|----8---8---8---8--|--8----------------|
D|--3---3---3---3----|--5---5---5---5----|--8-------8--------|--8----------------|
A|--1---1---3---3----|--3---3---3---3----|-------------------|--6----------------|
E|--1---1---1---1----|-------------------|-------------------|-------------------|
 |                                                                               |
G|-------------------|-------------------|-------------------|-------------------|
D|-------------------|-------------------|-------------------|-------------------|
A|--1-1-1-1----------|--3-3-3-3-3-3-3-3--|--6-6-6-6-6-6-6-6--|--6----------------|
E|----------1-1-1-1--|-------------------|-------------------|-------------------|
Drawing whiskers in the sky for fun to cover op the sun as you sting me with your laughter


Chorus:
    Gm      Eb          Gm      Eb          Gm      Eb          C       Eb/Bb
e|-------------------|-------------------|-------------------|-------------------|
B|----------8-8-8-8--|----------8-8-8-8--|----------8-8-8-8--|-------------------|
G|--3---3---8-8-8-8--|--3---3---8-8-8-8--|--3---3---8-8-8-8--|-------------------|
D|--5---5---8-8-8-8--|--5---5---8-8-8-8--|--5---5---8-8-8-8--|------10------10---|
A|--5---5---6-6-6-6--|--5---5---6-6-6-6--|--5---5---6-6-6-6--|----10--10--10--10-|
E|--3---3------------|--3---3------------|--3---3------------|--8-------6--------|
 |                                                                               |
G|-------------------|-------------------|-------------------|-------------------|
D|-------------------|-------------------|-------------------|-------------------|
A|----------6-6-6-6--|----------6-6-6-6--|----------6-6-6-6--|--3-3-3-3-6-6-6-6--|
E|--3---3------------|--3---3------------|--3---3------------|-------------------|
    Hi   -  de          Hi   -  de          Hi   -  de
                 Arma - geddon bride                     Arma - geddon bride

    Gm      Eb          Gm      Eb          Gm      Eb
e|-------------------|-------------------|-------------------|
B|----------8-8-8-8--|----------8-8-8-8--|----------8-8-8-8--|
G|--3---3---8-8-8-8--|--3---3---8-8-8-8--|--3---3---8-8-8-8--|
D|--5---5---8-8-8-8--|--5---5---8-8-8-8--|--5---5---8-8-8-8--|
A|--5---5---6-6-6-6--|--5---5---6-6-6-6--|--5---5---6-6-6-6--|
E|--3---3------------|--3---3------------|--3---3------------|
 |                                                           |
G|-------------------|-------------------|-------------------|
D|-------------------|-------------------|-------------------|
A|----------6-6-6-6--|----------6-6-6-6--|----------6-6-6-6--|
E|--3---3------------|--3---3------------|--3---3------------|
    Hi   -  de          Hi   -  de          Hi   -  de
                 Arma - geddon bride                     Hide

Pre-chorus:
    Bbm     Ebsus2      Db      Gb          Bbm     Ebsus2      Db      Gb
e|--1---1------------|----------2---2----|--1------1---------|----------2---2----|
B|--2---2---6---6----|--6---6---2---2----|--2----2----4------|--6---6---2---2----|
G|--3---3---8---8----|--6---6---3---3----|--3--3--------3----|--6---6---3---3----|
D|--3---3---8---8----|--6---6---4---4----|--3----------------|--6---6---4---4----|
A|--1---1---6---6----|--4---4---4---4----|--1----------------|--4---4---4---4----|
E|--1---1------------|----------2---2----|--1----------------|----------2---2----|
 |                                                                               |
G|-------------------|-------------------|-------------------|-------------------|
D|-------------------|-------------------|-------------------|----------4-4-4-4--|
A|--1-1-1-1-6-6-6-6--|--4-4-4-4----------|--1-1-1-1-6-6-6-6--|--4-4-4-4----------|
E|-------------------|----------2-2-2-2--|-------------------|-------------------|
              You  who  thought you had it  all     Lost your   leaves before the


    Db      B           Gb7     A           E                   E       D
e|-------------------|--2---2---5---5----|--0-0-0-0-0-0-0-0--|-------------------|
B|--6---6---4---4----|--2---2---5---5----|--0-0-0-0-0-0-0-0--|-------------------|
G|--6---6---4---4----|--3---3---6---6----|--1-1-1-1-1-1-1-1--|--9-9-9-9-7-7-7-7--|
D|--6---6---4---4----|--4---4---7---7----|--2-2-2-2-2-2-2-2--|--9-9-9-9-7-7-7-7--|
A|--4---4---2---2----|--4---4---7---7----|--2-2-2-2-2-2-2-2--|--7-7-7-7-5-5-5-5--|
E|-------------------|--2---2---5---5----|--0-0-0-0-0-0-0-0--|-------------------|
 |                                                                               |
G|-------------------|-------------------|-------------------|-------------------|
D|-------------------|-------------------|-------------------|-------------------|
A|--4-4-4-4-2-2-2-2--|----------0-0-0-0--|-------------------|--7-7-7-7-5-5-5-5--|
E|-------------------|--2-2-2-2----------|--0-0-0-0-0-0-0-0--|-------------------|
    fall You should have killed me You should have tried               You better


    Eb                          F          Bass-solo (Not correct!)
e|-------------------|-------------------|-------------------|-------------------|
B|--8-8-8-8-8-8-8-8--|--8-8-8-8-10101010-|-------------------|-------------------|
G|--8-8-8-8-8-8-8-8--|--8-8-8-8-10101010-|-------------------|-------------------|
D|--8-8-8-8-8-8-8-8--|--8-8-8-8-10101010-|-------------------|-------------------|
A|--6-6-6-6-6-6-6-6--|--6-6-6-6-8-8-8-8--|-------------------|-------------------|
E|-------------------|-------------------|-------------------|-------------------|
 |                                                                               |
G|-------------------|-------------------|-------------------|-------------------|
D|-------------------|-------------------|-------------------|-------------------|
A|--6-6-6-6-6-6-6-6--|--6-6-6-6-8-8-8-8--|-------------------|-------------------|
E|-------------------|-------------------|-321-0-1-321-0-0-1-|-321-0-1-321-0-0-1-|
    Hide                Armageddon

    Gm      Eb  Bb      C                   Gm      Eb  Bb      C      (guitar 2)
e|-------------------|-------------------|-------------------|----------3-3-3-3--|
B|----------6--------|--3-3--------------|----------6--------|--3-3-----3-3-3-3--|
G|--3-------8---7----|--5-5--------------|--3-------8---7----|--5-5--------------|
D|--5-------8---8----|--5-5--------------|--5-------8---8----|--5-5--------------|
A|--5-------6---8----|--3-3--------------|--5-------6---8----|--3-3--------------|
E|--3-----------6----|-------------------|--3-----------6----|-------------------|
 |  On the record the bass plays here the solo                                   |
G|-------------------|------3/5-5--5-5-5-|-------------------|-------3-----------|
D|-------------------|-------------------|-------------------|---------5-3-------|
A|----------6--------|--3-3--------------|----------6--------|--3-3--------5-3---|
E|--3-----------6----|-------------------|--3-----------6----|-----------------6-|    Gm      Eb  Bb      C                   Gm      Eb  Am      D
e|-------------------|----------3-3-3-3--|-------------------|----------5-5-5-5--|
B|----------6--------|--3-3-----3-3-3-3--|----------6--------|--7-7-7-7-7-7-7-7--|
G|--3-------8---7----|--5-5--------------|--3-------8---6----|--7-7-7-7-7-7-7-7--|
D|--5-------8---8----|--5-5--------------|--5-------8---7----|--7-7-7-7-7-7-7-7--|
A|--5-------6---8----|--3-3--------------|--5-------6---7----|--5-5-5-5-5-5-5-5--|
E|--3-----------6----|-------------------|--3-----------5----|-------------------|
 |                                                                               |
G|-------------------|-------------------|-------------------|-------------------|
D|-------------------|-------------------|-------------------|-------------------|
A|----------6--------|--3-3---3-3-3-3-3--|----------6--------|--5-5-5-5-5-5-5-5--|
E|--3-----------6----|-------------------|--3-----------5----|-------------------|


                        Pre-chorus:
    D                   Bbm                                     A
e|-------------------|--6-6-6-6-6-6-6-6--|--6-6-6-6-6-6-6-6--|--5-5-5-5-5-5-5-5--|
B|--7-7-7-7-7-7-7-7--|--6-6-6-6-6-6-6-6--|--6-6-6-6-6-6-6-6--|--5-5-5-5-5-5-5-5--|
G|--7-7-7-7-7-7-7-7--|--6-6-6-6-6-6-6-6--|--6-6-6-6-6-6-6-6--|--6-6-6-6-6-6-6-6--|
D|--7-7-7-7-7-7-7-7--|--8-8-8-8-8-8-8-8--|--8-8-8-8-8-8-8-8--|--7-7-7-7-7-7-7-7--|
A|--5-5-5-5-5-5-5-5--|--8-8-8-8-8-8-8-8--|--8-8-8-8-8-8-8-8--|--7-7-7-7-7-7-7-7--|
E|-------------------|--6-6-6-6-6-6-6-6--|--6-6-6-6-6-6-6-6--|--5-5-5-5-5-5-5-5--|
 |                                                                               |
G|-------------------|-------------------|-------------------|-------------------|
D|-------------------|-------------------|-------------------|-------------------|
A|-555\3/555\3/55555-|--1-1-1-1-1-1-1-1--|--1-1-1-1-1-3-4-1--|--0-0-0-0-0-0-0-0--|
E|-------------------|-------------------|-------------------|-------------------|
                        You   who   thought   you   had   it    all   Lost  your

    A                   Dbm                 Csus2   Dsus2
e|--5-5-5-5-5-5-5-5--|--4-4-4-4-4-4-4-4--|-------------------|
B|--5-5-5-5-5-5-5-5--|--5-5-5-5-5-5-5-5--|--3-3-3-3-5-5-5-5--|
G|--6-6-6-6-6-6-6-6--|--6-6-6-6-6-6-6-6--|--5-5-5-5-7-7-7-7--|
D|--7-7-7-7-7-7-7-7--|--6-6-6-6-6-6-6-6--|--5-5-5-5-7-7-7-7--|
A|--7-7-7-7-7-7-7-7--|--4-4-4-4-4-4-4-4--|--3-3-3-3-5-5-5-5--|
E|--5-5-5-5-5-5-5-5--|-------------------|-------------------|
 |                                                           |
G|-------------------|-------------------|-------------------|
D|-------------------|-------------------|-------------------|
A|--0-0-0-0-0-0-0-0--|--4-4-4-4-4-4-4-4--|--3-3-3-3-5-5-5-5--|
E|-------------------|-------------------|-------------------|
   leaves  before  the  fall

Chorus:
    Gm      Eb          Gm      Eb          Gm      Eb          C       Eb/Bb
e|-------------------|-------------------|-------------------|-------------------|
B|----------8-8-8-8--|----------8-8-8-8--|----------8-8-8-8--|-------------------|
G|--3---3---8-8-8-8--|--3---3---8-8-8-8--|--3---3---8-8-8-8--|-------------------|
D|--5---5---8-8-8-8--|--5---5---8-8-8-8--|--5---5---8-8-8-8--|------10------10---|
A|--5---5---6-6-6-6--|--5---5---6-6-6-6--|--5---5---6-6-6-6--|----10--10--10--10-|
E|--3---3------------|--3---3------------|--3---3------------|--8-------6--------|
 |                                                                               |
G|-------------------|-------------------|-------------------|-------------------|
D|-------------------|-------------------|-------------------|-------------------|
A|----------6-6-6-6--|----------6-6-6-6--|----------6-6-6-6--|--3-3-3-3-6-6-6-6--|
E|--3---3------------|--3---3------------|--3---3------------|-------------------|
    Hi   -  de                              Hi   -  de
                 Arma - geddon bride                     Arma - geddon bride


    Gm      Eb          Gm      Eb          Gm      Eb          E5
e|-------------------|-------------------|-------------------|-------------------|
B|----------8-8-8-8--|----------8-8-8-8--|----------8-8-8-8--|-------------------|
G|--3---3---8-8-8-8--|--3---3---8-8-8-8--|--3---3---8-8-8-8--|--9-9-9-9-9-9-9-9--|
D|--5---5---8-8-8-8--|--5---5---8-8-8-8--|--5---5---8-8-8-8--|--9-9-9-9-9-9-9-9--|
A|--5---5---6-6-6-6--|--5---5---6-6-6-6--|--5---5---6-6-6-6--|--7-7-7-7-7-7-7-7--|
E|--3---3------------|--3---3------------|--3---3------------|-------------------|
 |                                                                               |
G|-------------------|-------------------|-------------------|-------------------|
D|-------------------|-------------------|-------------------|-------------------|
A|----------6-6-6-6--|----------6-6-6-6--|----------6-6-6-6--|--7-7-7-7-7-7-7-7--|
E|--3---3------------|--3---3------------|--3---3------------|-------------------|
    Hi   -  de                              Hi   -  de
                 Arma - geddon bride                     Arma - geddon bride

    Eb      Csus2  Gm
e|-------------------|
B|----------3-3-3----|
G|--8-8-8-8-5-5-5--3-|
D|--8-8-8-8-5-5-5--5-|
A|--6-6-6-6-3-3-3--5-|
E|-----------------3-|
 |                   |
G|-------------------|
D|-------------------|
A|--6-6-6-6-333-33---|
E|-----------------3-|


This is the way I play "Hide" 
It's not the one and only but it sounds nice.
            
Hard to play? Try these video lessons and learn fast. | Correct




comments powered by Disqus
↑ Back to top | Tablatures and chords are parodies/interpretations of the original songs. You may use it for private study, scholarship, research or language learning purposes only