>
 >
The Sound

The Sound Bass Tabs

Krum Bums - The Sound chords, tabs, tablatures, lyrics

Guitar lessons | Add/correct | Request | Top 50 tabs Artists:  A B C D E F G H I J K L M N O P Q R S T U V W X Y Z 0-9

The Sound Bass Tabs – Krum Bums

CD, Sheet music, Poster

Do you like The Sound? Share with your friends now
Bass Tabs
(*)-let ring


INTRO 
G]------------------------------------------------]
D]------------------------------------------------]
A]-55-587-33-3-------------55-587-33-3------------]
E]------------33-6666-8888------------33-6666-8888]

MAIN VERSE   (play  3 times)                      (ON 3RD PLAY THIS)
G]--------------------------------------------------------]
D]--------------3*---2*-----------------------------------]
A]-55-587-33-3------------55-587-33-3-------------55555555]
E]------------33---------------------33-6666-8888---------]

CHORUS 
G]--------------------------------------------------------
D]--------------------------------------------------------
A]55-3-55-3-55-3-----87-787-787-78-10-87-787-787-78-10----
E]--------------5*----------------------------------------


G]------------------------------------------------------------]
D]------------------------------------------------------------]
A]-8*---7*---10*---5*---3333-87-787-787-78-10-87-787-787-78-10]
E]------------------------------------------------------------]


G]--------------------------------------------------------]
D]--------------------------------------------------------]
A]-8*---7*---10*---5*---3333------------------------------]
E]--------------------------------------------------------]

G]--------------------------------------------------------]
D]--------------------------------------------------------]
A]-55-33-8888-55-33-7777-55-33-8888-88-10-9-55-75---------]
E]--------------------------------------------------------]

THE REST OF THE SONG IS COMING SOON............. THIS WAS MY FIRST TAB SO ENJOY

BOB- FROM NUKLEAR DEKAY....... SEE YOU AT THE NEXT SHOW....





Comments


Popular Krum Bums tabs & chords
Krum Bums Bass Tabs
Cease Fire Tabs
Cease Fire Intro Tabs
Intro Tabs
Krum Bums Tabs
Losing My Mind Intro Tabs
Losing My Mind Intro 1 Tabs


Song lyrics



↑ Back to top | Tablatures and chords are parodies/interpretations of the original songs. You may use it for private study, scholarship, research or language learning purposes only
© 2014 AZChords.com Contact us | Privacy policy | DMCA | Add/correct tabs | Request tabs | Top 50 tabs