>
 >
Cease Fire

Cease Fire Guitar Tabs

Krum Bums - Cease Fire chords, tabs, tablatures, lyrics

Guitar lessons | Add/correct | Request | Top 50 tabs Artists:  A B C D E F G H I J K L M N O P Q R S T U V W X Y Z 0-9

Cease Fire Guitar Tabs – Krum Bums

CD, Sheet music, Poster

Do you like Cease Fire? Share with your friends now
Tabs
Intro

Play this really fast, listen how it's played.
e----------------------------------------|
B----------------------------------------|
G----------------------------------------|
D-7-10-3-10-2----------------------------|
A-7-10-3-10-2----------------------------|
E-5-8--1-8--0----------------------------|

Solo
e--------------------------------------------------------|
B--------------------------------------------------------|
G-99999999-12-10-9-9-9h10p9-7-999999-10------------------|
D--------------------------------------10-10-10-12-9-9-9-|
A--------------------------------------------------------|
E--------------------------------------------------------|

Play this again...
e----------------------------------------|
B----------------------------------------|
G----------------------------------------|
D-7-10-3-10-2----------------------------|
A-7-10-3-10-2----------------------------|
E-5-8--1-8--0----------------------------|

Chourus
(Cease fire mother f**ker, cease fire mother f**ker)
e----------------------------------------|
B----------------------------------------|
G---7-10---------------------------------|
D-7-7-10---------------------------------|
A-7-5-8----------------------------------|
E-5--------------------------------------|

Very fast part
e----------------------------------------|
B----------------------------------------|
G---7---3--------------------------------|
D-9-7-5-3-4------------------------------|
A-9-5-5-5-4------------------------------|
E-7---3---2------------------------------|

Thats it!
I think you repeat it a few more times, END.





Comments


Popular Krum Bums tabs & chords
Krum Bums Bass Tabs
The Sound Bass Tabs
Cease Fire Intro Tabs
Intro Tabs
Krum Bums Tabs
Losing My Mind Intro Tabs
Losing My Mind Intro 1 Tabs


Song lyrics



↑ Back to top | Tablatures and chords are parodies/interpretations of the original songs. You may use it for private study, scholarship, research or language learning purposes only
© 2014 AZChords.com Contact us | Privacy policy | DMCA | Add/correct tabs | Request tabs | Top 50 tabs