>
 >
Screaming In The Night 2

Screaming In The Night 2 Guitar Tabs

Krokus - Screaming In The Night 2 chords, tabs, tablatures, lyrics

Guitar lessons | Add/correct | Request | Top 50 tabs Artists:  A B C D E F G H I J K L M N O P Q R S T U V W X Y Z 0-9

Screaming In The Night 2 Guitar Tabs – Krokus

CD, Sheet music, Poster

Do you like Screaming In The Night 2? Share with your friends now
Bass TabsTabsTabs v2Tabs v3
-----------------------------------------------------------------------------
                                  
               Screaming In The Night - Krokus (GUITAR)
            
-----------------------------------------------------------------------------

Tuning: Standard

=============================================================================

Guitar 1




     H        Q    S  S E     W                   W                 
E||----------------L--L-0--|--L----------------|--L----------------|
B||----------------7s-8-7--|--L----------------|--L----------------|
G||------------------------|-------------------|-------------------|
D||------------------------|-------------------|-------------------|
A||------------------------|-------------------|-------------------|
E||------------------------|-------------------|-------------------|


  H        Q    S  S E     W                   W                 
--0--------L----L--L-0--|--L----------------|--L----------------|
--8--------L----7s-8-7--|--L----------------|--L----------------|
------------------------|-------------------|-------------------|
------------------------|-------------------|-------------------|
------------------------|-------------------|-------------------|
------------------------|-------------------|-------------------|


  H        Q    S  S E     W                   E   H.           E   
--0--------L----L--L-0--|--L----------------|--0---0------------L--|
--8--------L----7s-8-7--|--L----------------|--3s--5------------L--|
------------------------|-------------------|----------------------|
------------------------|-------------------|----------------------|
------------------------|-------------------|----------------------|
------------------------|-------------------|----------------------|


  E   H.           E     W                     H        Q    S  S E   
--0---0---------------|-------------------|----0--------L----L--L-0--|
--5s--3---------------|-------------------|--7g8--------L----7s-8-7--|
----------------------|-------------------|--------------------------|
----------------------|-------------------|--------------------------|
----------------------|-------------------|--------------------------|
----------------------|-------------------|--------------------------|


  W                     H        E    E  E  E     Q.      H        E   
--L----------------|----0--------L----0--0--0--|--L------10-----------|
--L----------------|--7g8--------L--/10--8--7--|--L-------L-----------|
-------------------|---------------------------|----------------------|
-------------------|---------------------------|----------------------|
-------------------|---------------------------|----------------------|
-------------------|---------------------------|----------------------|


    H        E    E  S   E.     H        E  E  S E  S   
----0--------L----0--L---0---|--0--------L--0--L-L--L--|
--7g8--------L--7g8--L-7g8---|--7--------L-------3--3s-|
-----------------------------|----------------------2s-|
-----------------------------|-------------------------|
-----------------------------|-------------------------|
-----------------------------|-------------------------|


  H        E  E   E  E     H.           E.   S  
--0--------L--0---L--L--|--L------------L------|
--5--------L--3s--5--3--|--L------------L------|
--4--------L---------2--|--L-------------------|
------------------------|-------------------14-|
------------------------|----------------------|
------------------------|----------------------|


   Q      H          S   S  E       H.            E   S   S  
--------------------------------|---------------------------|
--------------------------------|--------------------15s-17-|
--16~----16~--------14s-16-14~--|---L-------------L---------|
--------------------------------|---------------------------|
--------------------------------|---------------------------|
--------------------------------|---------------------------|


                                                             NH  
   S   H          S  S   E   S   E      H          Q.        E   
--17s-15~---------L-----------------|---------------------------|
--17s-15~---------L-15s-17--15s-17--|--15~---------L------<>12--|
--------------------14s-16--14s-16--|--14~---------L------<>12--|
------------------------------------|---------------------<>12--|
------------------------------------|---------------------------|
------------------------------------|---------------------------|


   W                   E  E  E  H        E     H.           E  E   
--------------------|-----------------------|---------------------|
---L----------------|-----------4--------L--|--8------------8--7--|
---L----------------|--------2--------------|--9------------9--7--|
---L----------------|-----4-----------------|--9------------9--7--|
--------------------|--2--------------------|---------------------|
--------------------|-----------------------|---------------------|


  W                   H        E  E  E  E     W                 
-------------------|-----------------------|-------------------|
--L----------------|--8--------L--7--8--7--|--L----------------|
--L----------------|--9--------L--9--9--7--|--L----------------|
--L----------------|--9--------L--9--9--7--|--L----------------|
-------------------|-----------------------|-------------------|
-------------------|-----------------------|-------------------|


  H.           E  E     W                   H        E  E  E  E   
---------------------|-------------------|-----------------------|
--8------------8--7--|--L----------------|--8--------L--7--8--7--|
--9------------9--7--|--L----------------|--9--------L--9--9--7--|
--9------------9--7--|--L----------------|--9--------L--9--9--7--|
---------------------|-------------------|-----------------------|
---------------------|-------------------|-----------------------|


  W                   Q    E  E  E  E  E  E     E  E  E  H        E   
-------------------|-------------------------|-----------------------|
--L----------------|-------------------------|-----------------------|
--L----------------|-------9-----9--9--x--x--|--9--9-----5--------L--|
--L----------------|-------------------x--x--|-----------------------|
-------------------|-------7-----7--7--x--x--|--7--7-----3--------L--|
-------------------|--0----------------------|-----------------------|


  Q    E  E  E  E  E  E     E  E  E   H         E     Q    E  E  E  E  E  E   
-------------------------|-------------------------|-------------------------|
-------------------------|-------------------------|-------------------------|
-------9-----9--9--x--x--|--9--9-----11---------L--|-------9-----9--9--x--x--|
-------------------x--x--|-------------------------|-------------------x--x--|
-------7-----7--7--x--x--|--7--7------9---------L--|-------7-----7--7--x--x--|
--0----------------------|-------------------------|--0----------------------|


  E  E  E  H        E     Q    E  E  E  E  E  E     E  E  E   H         E   
-----------------------|-------------------------|-------------------------|
-----------------------|-------------------------|-------------------------|
--9--9-----5--------L--|-------9-----9--9--x--x--|--9--9-----11---------L--|
-----------------------|-------------------x--x--|-------------------------|
--7--7-----3--------L--|-------7-----7--7--x--x--|--7--7------9---------L--|
-----------------------|--0----------------------|-------------------------|


  H.           E  E     W                   H        E  E  E  E   
---------------------|-------------------|-----------------------|
--8------------8--7--|--L----------------|--8--------L--7--8--7--|
--9------------9--7--|--L----------------|--9--------L--9--9--7--|
--9------------9--7--|--L----------------|--9--------L--9--9--7--|
---------------------|-------------------|-----------------------|
---------------------|-------------------|-----------------------|


  W                   H.           E  E     W                 
-------------------|---------------------|-------------------|
--L----------------|--8------------8--7--|--L----------------|
--L----------------|--9------------9--7--|--L----------------|
--L----------------|--9------------9--7--|--L----------------|
-------------------|---------------------|-------------------|
-------------------|---------------------|-------------------|


  H        E  E  E  E     W                   Q    E  E  E  E  E  E   
-----------------------|-------------------|-------------------------|
--8--------L--7--8--7--|--L----------------|-------------------------|
--9--------L--9--9--7--|--L----------------|-------9-----9--9--x--x--|
--9--------L--9--9--7--|--L----------------|-------------------x--x--|
-----------------------|-------------------|-------7-----7--7--x--x--|
-----------------------|-------------------|--0----------------------|


  E  E  E  H        E     Q    E  E  E  E  E  E     E  E  E   H         E   
-----------------------|-------------------------|-------------------------|
-----------------------|-------------------------|-------------------------|
--9--9-----5--------L--|-------9-----9--9--x--x--|--9--9-----11---------L--|
-----------------------|-------------------x--x--|-------------------------|
--7--7-----3--------L--|-------7-----7--7--x--x--|--7--7------9---------L--|
-----------------------|--0----------------------|-------------------------|


  Q    E  E  E  E  E  E     E  E  E  H        E     Q    E  E  E  E  E  E   
-------------------------|-----------------------|-------------------------|
-------------------------|-----------------------|-------------------------|
-------9-----9--9--x--x--|--9--9-----5--------L--|-------9-----9--9--x--x--|
-------------------x--x--|-----------------------|-------------------x--x--|
-------7-----7--7--x--x--|--7--7-----3--------L--|-------7-----7--7--x--x--|
--0----------------------|-----------------------|--0----------------------|


  E  E  E   H         E           H        E  E  E  E   
-------------------------|-----|-----------------------|
-------------------------|-----|-----------8--7--5--8--|
--9--9-----11---------L--|-----|-----------------------|
-------------------------|-----|-----------------------|
--7--7------9---------L--|-----|-----------------------|
-------------------------|-----|-----------------------|


  H         E  E  E   E      H           Q.     E  H         
-------------------------|------------|---------------------|
--L--------10--8--7--10--|---L--------|---------------------|
-------------------------|------------|---------------------|
-------------------------|------------|--2------2--2--------|
-------------------------|------------|--2------2--2--------|
-------------------------|------------|--0------0--0--------|


  Q.     E  H           Q.     E  H           Q.     S S Q.     E   
---------------------|---------------------|-----------------------|
---------------------|---------------------|-----------------------|
---------------------|--5------5--5--------|--5------5-5-5---------|
--2------2--2--------|--5------5--5--------|--5------5-5-5------x--|
--2------2--2--------|--3------3--3--------|--3------3-3-3------x--|
--0------0--0--------|---------------------|-----------------------|


  Q.     E  H           Q.     E  H           Q.     E  H         
---------------------|---------------------|---------------------|
---------------------|---------------------|---------------------|
---------------------|---------------------|--5------5--5--------|
--2------2--2--------|--2------2--2--------|--5------5--5--------|
--2------2--2--------|--2------2--2--------|--3------3--3--------|
--0------0--0--------|--0------0--0--------|---------------------|


  Q.     S S Q.     E     Q    E  E   E  E   Q       Q    E  E   E  E   Q     
-----------------------|--------------------------|--------------------------|
-----------------------|--------------------------|--------------------------|
--5------5-5-5---------|--9----9--7s--9--L\-------|--9----9--7s--9--L\-------|
--5------5-5-5------x--|--9----9--7s--9--L\-------|--9----9--7s--9--L\-------|
--3------3-3-3------x--|--7----7--5s--7--L\-------|--7----7--5s--7--L\-------|
-----------------------|--------------------------|--------------------------|


   Q.      E   H            Q.      S  S  Q.     E   
------------------------|---------------------------|
------------------------|---------------------------|
---9-------9---9--------|---9-------9--9--9---------|
--10------10--10--------|--10------10-10-10------x--|
--10------10--10--------|--10------10-10-10------x--|
---8-------8---8--------|---8-------8--8--8---------|


  E  E  E  E   E  E   Q       E  E  E  E  E  E  E  E     Q.     E  H         
---------------------------|--------------------------|---------------------|
---------------------------|--------------------------|---------------------|
--9--9--9--7s--9--L\-------|--9--7--9--7--9--8--7--6--|--5------5--5--------|
--9--9--9--7s--9--L\-------|--9--7--9--7--9--8--7--6--|--5------5--5--------|
--7--7--7--5s--7--L\-------|--7--5--7--5--7--6--5--4--|--3------3--3--------|
---------------------------|--------------------------|---------------------|


  Q.     S S Q.     E     E  E   E  E  E  E  E  E   
-----------------------|---------------------------|
-----------------------|---------x-----------------|
--5------5-5-5---------|---------x-----------------|
--5------5-5-5------x--|--4--L\--x--x--x--x--4--4--|
--3------3-3-3------x--|--2--L\--x--x--x--x--2--2--|
-----------------------|---------------------------|


  E   E  E  E  E  S  S  E  E     E  E   E  E  E  E  E  E   
------------------------------|---------------------------|
------x-----------------------|---------x-----------------|
------x-----------------------|---------x-----------------|
--L\--x--x--x--x--4s-5s-4--4--|--4--L\--x--x--x--x--4--4--|
--L\--x--x--x--x--2s-3s-2--0--|--2--L\--x--x--x--x--2--2--|
------------------------------|---------------------------|


  E   E  E  E  E  S  S  E  E     E  E   E  E  E  E  E  E   
------------------------------|---------------------------|
------x-----------------------|---------x-----------------|
------x-----------------------|---------x-----------------|
--L\--x--x--x--x--4s-5s-4--4--|--4--L\--x--x--x--x--4--4--|
--L\--x--x--x--x--2s-3s-2--0--|--2--L\--x--x--x--x--2--2--|
------------------------------|---------------------------|


  E   E  E  E  E  S  S  E  E     E  E   E  E  E  E  E  E   
------------------------------|---------------------------|
------x-----------------------|---------x-----------------|
------x-----------------------|---------x-----------------|
--L\--x--x--x--x--4s-5s-4--4--|--4--L\--x--x--x--x--4--4--|
--L\--x--x--x--x--2s-3s-2--0--|--2--L\--x--x--x--x--2--2--|
------------------------------|---------------------------|


  E  Q    Q    Q    E     H        E  Q    E     E  E  E  H        E   
-----------------------|----------------------|-----------------------|
-----------------------|----------------------|-----------------------|
-----------------------|-----------9--9-------|--9--9-----5--------L--|
--L--2-----------------|--9--------9--9-------|--9--9-----5--------L--|
--L--0----5----4----2--|--7--------7--7-------|--7--7-----3--------L--|
----------3----2----0--|--0--------0--0-------|--0--0-----------------|


     PM    PM       PM PM          PM                        PM       PM PM  
  E  E  E  E  E  E  E  E     E  E  E  H        E     Q    E  E  E  E  E  E   
--------------------------|-----------------------|-------------------------|
--------------------------|-----------------------|-------------------------|
--9-----------------------|-----------7--------L--|-------------------------|
--9-----9-----9--9--------|--9--9-----7--------L--|-------9-----9--9--------|
--7-----7-----7--7--------|--7--7-----5--------L--|-------7-----7--7--------|
--0--0--0--0--0--0--0--0--|--0--0--0--------------|--0----0--0--0--0--0--0--|


                                          PM PM                          
  E  E  E  H        E     Q    Q    E  E  E  E     E  E  E  H        E   
-----------------------|------------------------|-----------------------|
-----------------------|------------------------|-----------------------|
--9--9-----5--------L--|------------------------|-----------7--------L--|
--9--9-----5--------L--|-------9----9--9--------|--9--9-----7--------L--|
--7--7-----3--------L--|-------7----7--7--------|--7--7-----5--------L--|
--0--0-----------------|--0----0----0--0--0--0--|--0--0-----------------|


  H.           E  E     W                   H        E  E  E  E   
---------------------|-------------------|-----------------------|
--8------------8--7--|--L----------------|--8--------L--7--8--7--|
--9------------9--7--|--L----------------|--9--------L--9--9--7--|
--9------------9--7--|--L----------------|--9--------L--9--9--7--|
---------------------|-------------------|-----------------------|
---------------------|-------------------|-----------------------|


  W                   H.           E  E     W                 
-------------------|---------------------|-------------------|
--L----------------|--8------------8--7--|--L----------------|
--L----------------|--9------------9--7--|--L----------------|
--L----------------|--9------------9--7--|--L----------------|
-------------------|---------------------|-------------------|
-------------------|---------------------|-------------------|


  H        E  E  E  E     W                   H.           E  E   
-----------------------|-------------------|---------------------|
--8--------L--7--8--7--|--L----------------|--8------------8--7--|
--9--------L--9--9--7--|--L----------------|--9------------9--7--|
--9--------L--9--9--7--|--L----------------|--9------------9--7--|
-----------------------|-------------------|---------------------|
-----------------------|-------------------|---------------------|


  W                   H        E  E  E  E     W                 
-------------------|-----------------------|-------------------|
--L----------------|--8--------L--7--8--7--|--L----------------|
--L----------------|--9--------L--9--9--7--|--L----------------|
--L----------------|--9--------L--9--9--7--|--L----------------|
-------------------|-----------------------|-------------------|
-------------------|-----------------------|-------------------|


  H.           E  E     W                   H        E  E  E  E   
---------------------|-------------------|-----------------------|
--8------------8--7--|--L----------------|--8--------L--7--8--7--|
--9------------9--7--|--L----------------|--9--------L--9--9--7--|
--9------------9--7--|--L----------------|--9--------L--9--9--7--|
---------------------|-------------------|-----------------------|
---------------------|-------------------|-----------------------|


  W                   Q    E  E  E  E  E  E     E  E  E  H        E   
-------------------|-------------------------|-----------------------|
--L----------------|-------------------------|-----------------------|
--L----------------|-------9-----9--9--x--x--|--9--9-----5--------L--|
--L----------------|-------------------x--x--|-----------------------|
-------------------|-------7-----7--7--x--x--|--7--7-----3--------L--|
-------------------|--0----------------------|-----------------------|


  Q    E  E  E  E  E  E     E  E  E   H         E     Q    E  E  E  E  E  E   
-------------------------|-------------------------|-------------------------|
-------------------------|-------------------------|-------------------------|
-------9-----9--9--x--x--|--9--9-----11---------L--|-------9-----9--9--x--x--|
-------------------x--x--|-------------------------|-------------------x--x--|
-------7-----7--7--x--x--|--7--7------9---------L--|-------7-----7--7--x--x--|
--0----------------------|-------------------------|--0----------------------|


  E  E  E  H        E     Q    E  E  E  E  E  E     E  E  E   H         E   
-----------------------|-------------------------|-------------------------|
-----------------------|-------------------------|-------------------------|
--9--9-----5--------L--|-------9-----9--9--x--x--|--9--9-----11---------L--|
-----------------------|-------------------x--x--|-------------------------|
--7--7-----3--------L--|-------7-----7--7--x--x--|--7--7------9---------L--|
-----------------------|--0----------------------|-------------------------|


        H        E  E  E  E     H         E  E  E   E      H         
-----|-----------------------|-------------------------|------------|
-----|-----------8--7--5--8--|--L--------10--8--7--10--|---L--------|
-----|-----------------------|-------------------------|------------|
-----|-----------------------|-------------------------|------------|
-----|-----------------------|-------------------------|------------|
-----|-----------------------|-------------------------|------------|


  Q.     E  H           Q.     E  H                                             
---------------------|---------------------|-----------|-----------|-----------|
---------------------|---------------------|-----------|-----------|-----------|
---------------------|---------------------|-----------|-----------|-----------|
--2------2--2--------|--2------2--2--------|-----------|-----------|-----------|
--2------2--2--------|--2------2--2--------|-----------|-----------|-----------|
--0------0--0--------|--0------0--0--------|-----------|-----------|-----------|


-----------|-----------|-----------|-----------|-----------|-----------|
-----------|-----------|-----------|-----------|-----------|-----------|
-----------|-----------|-----------|-----------|-----------|-----------|
-----------|-----------|-----------|-----------|-----------|-----------|
-----------|-----------|-----------|-----------|-----------|-----------|
-----------|-----------|-----------|-----------|-----------|-----------|


-----------|-----------|-----------|-----------|-----------|-----------|
-----------|-----------|-----------|-----------|-----------|-----------|
-----------|-----------|-----------|-----------|-----------|-----------|
-----------|-----------|-----------|-----------|-----------|-----------|
-----------|-----------|-----------|-----------|-----------|-----------|
-----------|-----------|-----------|-----------|-----------|-----------|


-----------|-----------|-----------|-----------|-----------|-----------|
-----------|-----------|-----------|-----------|-----------|-----------|
-----------|-----------|-----------|-----------|-----------|-----------|
-----------|-----------|-----------|-----------|-----------|-----------|
-----------|-----------|-----------|-----------|-----------|-----------|
-----------|-----------|-----------|-----------|-----------|-----------|


-----------|-----------|-----------|-----------|-----------|-----------|
-----------|-----------|-----------|-----------|-----------|-----------|
-----------|-----------|-----------|-----------|-----------|-----------|
-----------|-----------|-----------|-----------|-----------|-----------|
-----------|-----------|-----------|-----------|-----------|-----------|
-----------|-----------|-----------|-----------|-----------|-----------|


-----------|-----------|-----------||
-----------|-----------|-----------||
-----------|-----------|-----------||
-----------|-----------|-----------||
-----------|-----------|-----------||
-----------|-----------|-----------||




=============================================================================


                        

Guitar 2



E||-------|-------|-------|-------|-------|-------|-------|-------|-------|
B||-------|-------|-------|-------|-------|-------|-------|-------|-------|
G||-------|-------|-------|-------|-------|-------|-------|-------|-------|
D||-------|-------|-------|-------|-------|-------|-------|-------|-------|
A||-------|-------|-------|-------|-------|-------|-------|-------|-------|
E||-------|-------|-------|-------|-------|-------|-------|-------|-------|


-------|-------|-------|-------|-------|-------|-------|-------|-------|-------|
-------|-------|-------|-------|-------|-------|-------|-------|-------|-------|
-------|-------|-------|-------|-------|-------|-------|-------|-------|-------|
-------|-------|-------|-------|-------|-------|-------|-------|-------|-------|
-------|-------|-------|-------|-------|-------|-------|-------|-------|-------|
-------|-------|-------|-------|-------|-------|-------|-------|-------|-------|


-------|-------|-------|-------|-------|-------|-------|-------|-------|-------|
-------|-------|-------|-------|-------|-------|-------|-------|-------|-------|
-------|-------|-------|-------|-------|-------|-------|-------|-------|-------|
-------|-------|-------|-------|-------|-------|-------|-------|-------|-------|
-------|-------|-------|-------|-------|-------|-------|-------|-------|-------|
-------|-------|-------|-------|-------|-------|-------|-------|-------|-------|


                          H        S  S E  S  S E      Q    E  E  E  E  E  E   
-------|-------|-------|----------------------------|-------------------------|
-------|-------|-------|----------------------------|-------8-----8--8--------|
-------|-------|-------|----------------------------|-------------------x--x--|
-------|-------|-------|----------------------------|-------5-----5--5--x--x--|
-------|-------|-------|----------------5-----------|-------------------x--x--|
-------|-------|-------|-----------5s-7----7p-0-3b--|--0----------------------|


  E  E  E  H        E     Q    E  E  E  E  E  E     E  E  E   H         E   
-----------------------|-------------------------|-------------------------|
--8--8-----5--------L--|-------8-----8--8--------|--8--8-----10---------L--|
-----------------------|-------------------x--x--|-------------------------|
--5--5-----2--------L--|-------5-----5--5--x--x--|--5--5------7---------L--|
-----------------------|-------------------x--x--|-------------------------|
-----------------------|--0----------------------|-------------------------|


  Q    E  E  E  E  E  E     E  E  E  H        E     Q    E  E  E  E  E  E   
-------------------------|-----------------------|-------------------------|
-------8-----8--8--------|--8--8-----5--------L--|-------8-----8--8--------|
-------------------x--x--|-----------------------|-------------------x--x--|
-------5-----5--5--x--x--|--5--5-----2--------L--|-------5-----5--5--x--x--|
-------------------x--x--|-----------------------|-------------------x--x--|
--0----------------------|-----------------------|--0----------------------|


  E  E  E   H         E                                                   
-------------------------|-----------|-----------|-----------|-----------|
--8--8-----10---------L--|-----------|-----------|-----------|-----------|
-------------------------|-----------|-----------|-----------|-----------|
--5--5------7---------L--|-----------|-----------|-----------|-----------|
-------------------------|-----------|-----------|-----------|-----------|
-------------------------|-----------|-----------|-----------|-----------|


                                      H        S  S E  S  S E    
-----------|-----------|-----------|----------------------------|
-----------|-----------|-----------|----------------------------|
-----------|-----------|-----------|----------------------------|
-----------|-----------|-----------|----------------------------|
-----------|-----------|-----------|----------------5-----------|
-----------|-----------|-----------|-----------5s-7----7p-0-3b--|


  Q    E  E  E  E  E  E     E  E  E  H        E     Q    E  E  E  E  E  E   
-------------------------|-----------------------|-------------------------|
-------8-----8--8--------|--8--8-----5--------L--|-------8-----8--8--------|
-------------------x--x--|-----------------------|-------------------x--x--|
-------5-----5--5--x--x--|--5--5-----2--------L--|-------5-----5--5--x--x--|
-------------------x--x--|-----------------------|-------------------x--x--|
--0----------------------|-----------------------|--0----------------------|


  E  E  E   H         E     Q    E  E  E  E  E  E     E  E  E  H        E   
-------------------------|-------------------------|-----------------------|
--8--8-----10---------L--|-------8-----8--8--------|--8--8-----5--------L--|
-------------------------|-------------------x--x--|-----------------------|
--5--5------7---------L--|-------5-----5--5--x--x--|--5--5-----2--------L--|
-------------------------|-------------------x--x--|-----------------------|
-------------------------|--0----------------------|-----------------------|


  Q    E  E  E  E  E  E     E  E  E   H         E         
-------------------------|-------------------------|-----|
-------8-----8--8--------|--8--8-----10---------L--|-----|
-------------------x--x--|-------------------------|-----|
-------5-----5--5--x--x--|--5--5------7---------L--|-----|
-------------------x--x--|-------------------------|-----|
--0----------------------|-------------------------|-----|


  H        E  E  E  E     H         E  E  E   E      H         
-----------8--7--5--8--|--L--------10--8--7--10--|---L--------|
-----------------------|-------------------------|------------|
-----------------------|-------------------------|------------|
-----------------------|-------------------------|------------|
-----------------------|-------------------------|------------|
-----------------------|-------------------------|------------|


  Q.     E  H           Q.     E  H            Q.      E   H         
---------------------|---------------------|------------------------|
---------------------|---------------------|------------------------|
--9------9--9--------|--9------9--9--------|---9-------9---9--------|
--9------9--9--------|--9------9--9--------|--10------10--10--------|
--7------7--7--------|--7------7--7--------|--10------10--10--------|
---------------------|---------------------|---8-------8---8--------|


   Q.      S  S  Q.     E     Q.     E  H           Q.     E  H         
---------------------------|---------------------|---------------------|
---------------------------|---------------------|---------------------|
---9-------9--9--9---------|--9------9--9--------|--9------9--9--------|
--10------10-10-10------x--|--9------9--9--------|--9------9--9--------|
--10------10-10-10------x--|--7------7--7--------|--7------7--7--------|
---8-------8--8--8---------|---------------------|---------------------|


   Q.      E   H            Q.      S  S  Q.     E                           
------------------------|---------------------------|-----|-----|-----|-----|
------------------------|---------------------------|-----|-----|-----|-----|
---9-------9---9--------|---9-------9--9--9---------|-----|-----|-----|-----|
--10------10--10--------|--10------10-10-10------x--|-----|-----|-----|-----|
--10------10--10--------|--10------10-10-10------x--|-----|-----|-----|-----|
---8-------8---8--------|---8-------8--8--8---------|-----|-----|-----|-----|


-----|-----|-----|-----|-----|-----|-----|-----|-----|-----|-----|-----|-----|
-----|-----|-----|-----|-----|-----|-----|-----|-----|-----|-----|-----|-----|
-----|-----|-----|-----|-----|-----|-----|-----|-----|-----|-----|-----|-----|
-----|-----|-----|-----|-----|-----|-----|-----|-----|-----|-----|-----|-----|
-----|-----|-----|-----|-----|-----|-----|-----|-----|-----|-----|-----|-----|
-----|-----|-----|-----|-----|-----|-----|-----|-----|-----|-----|-----|-----|


                                             H.            E   E   
-----|-----|-----|-----|-----|-----|-----|--12------------12--10--|
-----|-----|-----|-----|-----|-----|-----|--12------------12--10--|
-----|-----|-----|-----|-----|-----|-----|------------------------|
-----|-----|-----|-----|-----|-----|-----|------------------------|
-----|-----|-----|-----|-----|-----|-----|------------------------|
-----|-----|-----|-----|-----|-----|-----|------------------------|


  W                    H         E   E   E   E      W                 
-------------------|--12---------L--10--12--10--|---L----------------|
--L----------------|--12---------L--12--12--10--|---L----------------|
--L----------------|----------------------------|--------------------|
-------------------|----------------------------|--------------------|
-------------------|----------------------------|--------------------|
-------------------|----------------------------|--------------------|


   H.            E   E     W                    H         E   E   E   E   
--12------------12--10--|-------------------|--12---------L--10--12--10--|
--12------------12--10--|--L----------------|--12---------L--12--12--10--|
------------------------|--L----------------|----------------------------|
------------------------|-------------------|----------------------------|
------------------------|-------------------|----------------------------|
------------------------|-------------------|----------------------------|


   W                    H.            E   E     W                 
---L----------------|--12------------12--10--|-------------------|
---L----------------|--12------------12--10--|--L----------------|
--------------------|------------------------|--L----------------|
--------------------|------------------------|-------------------|
--------------------|------------------------|-------------------|
--------------------|------------------------|-------------------|


   H         E   E   E   E      W                    H.            E   E   
--12---------L--10--12--10--|---L----------------|--12------------12--10--|
--12---------L--12--12--10--|---L----------------|--12------------12--10--|
----------------------------|--------------------|------------------------|
----------------------------|--------------------|------------------------|
----------------------------|--------------------|------------------------|
----------------------------|--------------------|------------------------|


  W                    H         E   E   E   E      H        S  S E  S  S E    
-------------------|--12---------L--10--12--10--|---L-------------------------|
--L----------------|--12---------L--12--12--10--|---L-------------------------|
--L----------------|----------------------------|-----------------------------|
-------------------|----------------------------|-----------------------------|
-------------------|----------------------------|-----------------5-----------|
-------------------|----------------------------|------------5s-7----7p-0-3b--|


  Q    E  E  E  E  E  E     E  E  E  H        E     Q    E  E  E  E  E  E   
-------------------------|-----------------------|-------------------------|
-------8-----8--8--------|--8--8-----5--------L--|-------8-----8--8--------|
-------------------x--x--|-----------------------|-------------------x--x--|
-------5-----5--5--x--x--|--5--5-----2--------L--|-------5-----5--5--x--x--|
-------------------x--x--|-----------------------|-------------------x--x--|
--0----------------------|-----------------------|--0----------------------|


  E  E  E   H         E     Q    E  E  E  E  E  E     E  E  E  H        E   
-------------------------|-------------------------|-----------------------|
--8--8-----10---------L--|-------8-----8--8--------|--8--8-----5--------L--|
-------------------------|-------------------x--x--|-----------------------|
--5--5------7---------L--|-------5-----5--5--x--x--|--5--5-----2--------L--|
-------------------------|-------------------x--x--|-----------------------|
-------------------------|--0----------------------|-----------------------|


  Q    E  E  E  E  E  E     E  E  E   H         E         
-------------------------|-------------------------|-----|
-------8-----8--8--------|--8--8-----10---------L--|-----|
-------------------x--x--|-------------------------|-----|
-------5-----5--5--x--x--|--5--5------7---------L--|-----|
-------------------x--x--|-------------------------|-----|
--0----------------------|-------------------------|-----|


  H        E  E  E  E     H         E  E  E   E      H         
-----------8--7--5--8--|--L--------10--8--7--10--|---L--------|
-----------------------|-------------------------|------------|
-----------------------|-------------------------|------------|
-----------------------|-------------------------|------------|
-----------------------|-------------------------|------------|
-----------------------|-------------------------|------------|


  Q.     E  H           Q.     E  H            Q.      E   H         
---------------------|---------------------|------------------------|
---------------------|---------------------|------------------------|
--9------9--9--------|--9------9--9--------|---9-------9---9--------|
--9------9--9--------|--9------9--9--------|--10------10--10--------|
--7------7--7--------|--7------7--7--------|--10------10--10--------|
---------------------|---------------------|---8-------8---8--------|


   Q.      S  S  Q.     E     Q.     E  H           Q.     E  H         
---------------------------|---------------------|---------------------|
---------------------------|---------------------|---------------------|
---9-------9--9--9---------|--9------9--9--------|--9------9--9--------|
--10------10-10-10------x--|--9------9--9--------|--9------9--9--------|
--10------10-10-10------x--|--7------7--7--------|--7------7--7--------|
---8-------8--8--8---------|---------------------|---------------------|


   Q.      E   H            Q.      S  S  Q.     E     E  E  E  E  Q     Q     
------------------------|---------------------------|-------------------------|
------------------------|---------------------------|-------------------------|
---9-------9---9--------|---9-------9--9--9---------|--9--9--9--7--9\---------|
--10------10--10--------|--10------10-10-10------x--|--9--9--9--7--9\---------|
--10------10--10--------|--10------10-10-10------x--|--7--7--7--5--7\---------|
---8-------8---8--------|---8-------8--8--8---------|--------------------0----|


  E  E  E  E  Q     Q        Q.      E   H            Q.      S  S  Q.     E   
-------------------------|------------------------|---------------------------|
-------------------------|------------------------|---------------------------|
--9--L--9--7--9\---------|---9-------9---9--------|---9-------9--9--9---------|
--9--L--9--7--9\---------|--10------10--10--------|--10------10-10-10------x--|
--7--L--7--5--7\---------|--10------10--10--------|--10------10-10-10------x--|
-------------------------|---8-------8---8--------|---8-------8--8--8---------|


  E  E  E  E  Q     Q       E  E  E  E  E  E  E  E     Q.     E  H         
-------------------------|--------------------------|---------------------|
-------------------------|--------------------------|---------------------|
--9--9--9--7--9\---------|--9--9--9--7--9--8--7--6--|--5------5--5--------|
--9--9--9--7--9\---------|--9--9--9--7--9--8--7--6--|--5------5--5--------|
--7--7--7--5--7\---------|--7--7--7--5--7--6--5--4--|--3------3--3--------|
-------------------------|--------------------------|---------------------|


  Q.     S S Q.     E     E  E  E  E  Q     Q       E  E  E  E  Q     Q     
-----------------------|-------------------------|-------------------------|
-----------------------|-------------------------|-------------------------|
--5------5-5-5---------|--9--9--9--7--9\---------|--9--L--9--7--9\---------|
--5------5-5-5------x--|--9--9--9--7--9\---------|--9--L--9--7--9\---------|
--3------3-3-3------x--|--7--7--7--5--7\---------|--7--L--7--5--7\---------|
-----------------------|--------------------0----|-------------------------|


  Q.     E  H           Q.     S S Q.     E     E  E  E  E  Q     Q     
---------------------|-----------------------|-------------------------|
---------------------|-----------------------|-------------------------|
--5------5--5--------|--5------5-5-5---------|--9--9--9--7--9\---------|
--5------5--5--------|--5------5-5-5------x--|--9--9--9--7--9\---------|
--3------3--3--------|--3------3-3-3------x--|--7--7--7--5--7\---------|
---------------------|-----------------------|-------------------------|


  E  E  E  E  E  E  E  E     Q.     E  H           Q.     S S Q.     E   
--------------------------|---------------------|-----------------------|
--------------------------|---------------------|-----------------------|
--9--9--9--7--9--8--7--6--|--5------5--5--------|--5------5-5-5---------|
--9--9--9--7--9--8--7--6--|--5------5--5--------|--5------5-5-5------x--|
--7--7--7--5--7--6--5--4--|--3------3--3--------|--3------3-3-3------x--|
--------------------------|---------------------|-----------------------|


  E  E  E  E  Q     Q       E  E  E  E  Q     Q       Q.     E  H         
-------------------------|-------------------------|---------------------|
-------------------------|-------------------------|---------------------|
--9--9--9--7--9\---------|--9--L--9--7--9\---------|--5------5--5--------|
--9--9--9--7--9\---------|--9--L--9--7--9\---------|--5------5--5--------|
--7--7--7--5--7\---------|--7--L--7--5--7\---------|--3------3--3--------|
--------------------0----|-------------------------|---------------------|


  Q.     S S Q.     E     E  E  E  E  Q     Q       E  E  E  E  E  E  E  E   
-----------------------|-------------------------|--------------------------|
-----------------------|-------------------------|--------------------------|
--5------5-5-5---------|--9--9--9--7--9\---------|--9--9--9--7--9--8--7--6--|
--5------5-5-5------x--|--9--9--9--7--9\---------|--9--9--9--7--9--8--7--6--|
--3------3-3-3------x--|--7--7--7--5--7\---------|--7--7--7--5--7--6--5--4--|
-----------------------|-------------------------|--------------------------|


  Q.     E  H           Q.     S S Q.     E    
---------------------|-----------------------||
---------------------|-----------------------||
--5------5--5--------|--5------5-5-5---------||
--5------5--5--------|--5------5-5-5------x--||
--3------3--3--------|--3------3-3-3------x--||
---------------------|-----------------------||


=============================================================================

                             

Guitar 3



E||-------|-------|-------|-------|-------|-------|-------|-------|-------|
B||-------|-------|-------|-------|-------|-------|-------|-------|-------|
G||-------|-------|-------|-------|-------|-------|-------|-------|-------|
D||-------|-------|-------|-------|-------|-------|-------|-------|-------|
A||-------|-------|-------|-------|-------|-------|-------|-------|-------|
E||-------|-------|-------|-------|-------|-------|-------|-------|-------|


-------|-------|-------|-------|-------|-------|-------|-------|-------|-------|
-------|-------|-------|-------|-------|-------|-------|-------|-------|-------|
-------|-------|-------|-------|-------|-------|-------|-------|-------|-------|
-------|-------|-------|-------|-------|-------|-------|-------|-------|-------|
-------|-------|-------|-------|-------|-------|-------|-------|-------|-------|
-------|-------|-------|-------|-------|-------|-------|-------|-------|-------|


-------|-------|-------|-------|-------|-------|-------|-------|-------|-------|
-------|-------|-------|-------|-------|-------|-------|-------|-------|-------|
-------|-------|-------|-------|-------|-------|-------|-------|-------|-------|
-------|-------|-------|-------|-------|-------|-------|-------|-------|-------|
-------|-------|-------|-------|-------|-------|-------|-------|-------|-------|
-------|-------|-------|-------|-------|-------|-------|-------|-------|-------|


                                  Q    E  E  E  E  E  E   
-------|-------|-------|-------|-------------------------|
-------|-------|-------|-------|-------8-----8--8--------|
-------|-------|-------|-------|-------9-----9--9--x--x--|
-------|-------|-------|-------|-------9-----9--9--x--x--|
-------|-------|-------|-------|-------7-----7--7--x--x--|
-------|-------|-------|-------|--0----------------------|


  E  E  E   H         E     Q    E  E  E  E  E  E     E  E  E   H         E   
-------------------------|-------------------------|-------------------------|
--8--8-------------------|-------8-----8--8--------|--8--8-------------------|
--9--9------9---------L--|-------9-----9--9--x--x--|--9--9-----11---------L--|
--9--9-----10---------L--|-------9-----9--9--x--x--|--9--9-----12---------L--|
--7--7-----10---------L--|-------7-----7--7--x--x--|--7--7-----12---------L--|
------------8---------L--|--0----------------------|-----------10---------L--|


  Q    E  E  E  E  E  E     E  E  E   H         E     Q    E  E  E  E  E  E   
-------------------------|-------------------------|-------------------------|
-------8-----8--8--------|--8--8-------------------|-------8-----8--8--------|
-------9-----9--9--x--x--|--9--9------9---------L--|-------9-----9--9--x--x--|
-------9-----9--9--x--x--|--9--9-----10---------L--|-------9-----9--9--x--x--|
-------7-----7--7--x--x--|--7--7-----10---------L--|-------7-----7--7--x--x--|
--0----------------------|------------8---------L--|--0----------------------|


  E  E  E   H         E                                                   
-------------------------|-------|-------|-------|-------|-------|-------|
--8--8-------------------|-------|-------|-------|-------|-------|-------|
--9--9-----11---------L--|-------|-------|-------|-------|-------|-------|
--9--9-----12---------L--|-------|-------|-------|-------|-------|-------|
--7--7-----12---------L--|-------|-------|-------|-------|-------|-------|
-----------10---------L--|-------|-------|-------|-------|-------|-------|


                  Q    E  E  E  E  E  E     E  E  E   H         E   
-------|-------|-------------------------|-------------------------|
-------|-------|-------8-----8--8--------|--8--8-------------------|
-------|-------|-------9-----9--9--x--x--|--9--9------9---------L--|
-------|-------|-------9-----9--9--x--x--|--9--9-----10---------L--|
-------|-------|-------7-----7--7--x--x--|--7--7-----10---------L--|
-------|-------|--0----------------------|------------8---------L--|


                                             NH   NH   NH  
  Q    E  E  E  E  E  E     E  E  E  E  E    E    E    E   
-------------------------|--------------------------------|
-------8-----8--8--------|--8--8--------------------------|
-------9-----9--9--x--x--|--9--9--------------------------|
-------9-----9--9--x--x--|--9--9-----------<>9--<>5--<>7--|
-------7-----7--7--x--x--|--7--7--------------------------|
--0----------------------|-----------8--------------------|


  Q    E  E  E  E  E  E     E  E  E   H         E     Q    E  E  E  E  E  E   
-------------------------|-------------------------|-------------------------|
-------8-----8--8--------|--8--8-------------------|-------8-----8--8--------|
-------9-----9--9--x--x--|--9--9------9---------L--|-------9-----9--9--x--x--|
--L----9-----9--9--x--x--|--9--9-----10---------L--|-------9-----9--9--x--x--|
-------7-----7--7--x--x--|--7--7-----10---------L--|-------7-----7--7--x--x--|
-------------------------|------------8---------L--|--0----------------------|


  E  E  E   H         E      H        H           H        E  E  E  E   
-------------------------|---------------------|-----------------------|
--8--8-------------------|---------------------|-----------------------|
--9--9-----11---------L--|---L-----------------|-----------9--7--5--9--|
--9--9-----12---------L--|---L-----------------|-----------------------|
--7--7-----12---------L--|---L-----------------|-----------------------|
-----------10---------L--|---L-----------------|-----------------------|


  H         E  E  E   E      H                                             
-------------------------|------------|-----------|-----------|-----------|
-------------------------|------------|-----------|-----------|-----------|
--L--------11--9--7--11--|---L--------|-----------|-----------|-----------|
-------------------------|------------|-----------|-----------|-----------|
-------------------------|------------|-----------|-----------|-----------|
-------------------------|------------|-----------|-----------|-----------|


-----------|-----------|-----------|-----------|-----------|-----------|
-----------|-----------|-----------|-----------|-----------|-----------|
-----------|-----------|-----------|-----------|-----------|-----------|
-----------|-----------|-----------|-----------|-----------|-----------|
-----------|-----------|-----------|-----------|-----------|-----------|
-----------|-----------|-----------|-----------|-----------|-----------|


-----------|-----------|-----------|-----------|-----------|-----------|
-----------|-----------|-----------|-----------|-----------|-----------|
-----------|-----------|-----------|-----------|-----------|-----------|
-----------|-----------|-----------|-----------|-----------|-----------|
-----------|-----------|-----------|-----------|-----------|-----------|
-----------|-----------|-----------|-----------|-----------|-----------|


-----------|-----------|-----------|-----------|-----------|-----------|
-----------|-----------|-----------|-----------|-----------|-----------|
-----------|-----------|-----------|-----------|-----------|-----------|
-----------|-----------|-----------|-----------|-----------|-----------|
-----------|-----------|-----------|-----------|-----------|-----------|
-----------|-----------|-----------|-----------|-----------|-----------|


                          H.           S E.     H.           S E.   
-----------|-----------|---------------------|---------------------|
-----------|-----------|---------------------|--5------------L-----|
-----------|-----------|-----------------4---|-----------------4---|
-----------|-----------|---------------------|---------------------|
-----------|-----------|---------------------|---------------------|
-----------|-----------|---------------------|---------------------|


  E  E  E  E.  S  S Q    S    Q    S S E  S S S S S S S S  
---------------------------|------------------------------|
--5--7--8--7---8p-7--------|-------0-3-0--0-5-3-0-7-5-0-8-|
--------------------9----L-|--L---------------------------|
---------------------------|------------------------------|
---------------------------|------------------------------|
---------------------------|------------------------------|


  S S  S S Q      H         
---------------------------|
--7-0-10-8-0s----15--------|
---------------------------|
---------------------------|
---------------------------|
---------------------------|


  S  S   S  S  S  S  S   S  S  S  S  S   S  S  S  S  
-----------12--------------12--------------12-------|
--------12----15-12-----12----15-12-----12----15-12-|
----14b-------------14b-------------14b-------------|
----------------------------------------------------|
----------------------------------------------------|
----------------------------------------------------|


   S   S  S  S  E    S  E.    Q.       
---------12---------------------------|
------12----12-15b--12----------------|
--14b------------------12b------------|
-----------------------------14~------|
--------------------------------------|
--------------------------------------|


   S   S  S  S  S   S  S  S  S  S S S  S S S S    E  E  E  H        E    
-----------------------------------------------|------------------------|
--15s-12-12-12-12s-10-10-10-10s-8-8-Ls-7-7-7-5-|--5--7--8--7--------Ls--|
-----------------------------------------------|------------------------|
-----------------------------------------------|------------------------|
-----------------------------------------------|------------------------|
-----------------------------------------------|------------------------|


  H.           Q                               H        E   S S S  S E   
--------------------|-------|-------|-------|---------------------------|
--8-----------------|-------|-------|-------|-----------5-------5----5--|
--------------------|-------|-------|-------|-----------7b--7-7-7b-7----|
--------------------|-------|-------|-------|---------------------------|
--------------------|-------|-------|-------|---------------------------|
--------------------|-------|-------|-------|---------------------------|


                                        Harmony guitars                        
  W                                     <                                      
  W                                     W                    W                 
--------------------|-------|-------|--------------------|--------------------|
--------------------|-------|-------|--17----------------|---L----------------|
--7~----------------|-------|-------|--16----------------|---L----------------|
--------------------|-------|-------|--17----------------|---L----------------|
--------------------|-------|-------|--------------------|--------------------|
--------------------|-------|-------|--------------------|--------------------|


                                                  Q    E  E  E  E  E  E   
-------|-------|-------|-------|-------|-------|-------------------------|
-------|-------|-------|-------|-------|-------|-------8-----8--8--------|
-------|-------|-------|-------|-------|-------|-------9-----9--9--x--x--|
-------|-------|-------|-------|-------|-------|-------9-----9--9--x--x--|
-------|-------|-------|-------|-------|-------|-------7-----7--7--x--x--|
-------|-------|-------|-------|-------|-------|--0----------------------|


  E  E  E   H         E     Q    E  E  E  E  E  E   
-------------------------|-------------------------|
--8--8-------------------|-------8-----8--8--------|
--9--9------9---------L--|-------9-----9--9--x--x--|
--9--9-----10---------L--|-------9-----9--9--x--x--|
--7--7-----10---------L--|-------7-----7--7--x--x--|
------------8---------L--|--0----------------------|


                   NH   NH   NH                            
  E  E  E  E  E    E    E    E     Q    E  E  E  E  E  E   
--------------------------------|-------------------------|
--8--8--------------------------|-------8-----8--8--------|
--9--9--------------------------|-------9-----9--9--x--x--|
--9--9-----------<>9--<>5--<>7--|--L----9-----9--9--x--x--|
--7--7--------------------------|-------7-----7--7--x--x--|
-----------8--------------------|-------------------------|


  E  E  E   H         E     Q    E  E  E  E  E  E     E  E  E   H         E   
-------------------------|-------------------------|-------------------------|
--8--8-------------------|-------8-----8--8--------|--8--8-------------------|
--9--9------9---------L--|-------9-----9--9--x--x--|--9--9-----11---------L--|
--9--9-----10---------L--|-------9-----9--9--x--x--|--9--9-----12---------L--|
--7--7-----10---------L--|-------7-----7--7--x--x--|--7--7-----12---------L--|
------------8---------L--|--0----------------------|-----------10---------L--|


   H        H           H        E  E  E  E     H         E  E  E   E   
---------------------|-----------------------|-------------------------|
---------------------|-----------------------|-------------------------|
---L-----------------|-----------9--7--5--9--|--L--------11--9--7--11--|
---L-----------------|-----------------------|-------------------------|
---L-----------------|-----------------------|-------------------------|
---L-----------------|-----------------------|-------------------------|


   H                                                                     
------------|-----------|-----------|-----------|-----------|-----------|
------------|-----------|-----------|-----------|-----------|-----------|
---L--------|-----------|-----------|-----------|-----------|-----------|
------------|-----------|-----------|-----------|-----------|-----------|
------------|-----------|-----------|-----------|-----------|-----------|
------------|-----------|-----------|-----------|-----------|-----------|


-----------|-----------|-----------|-----------|-----------|-----------|
-----------|-----------|-----------|-----------|-----------|-----------|
-----------|-----------|-----------|-----------|-----------|-----------|
-----------|-----------|-----------|-----------|-----------|-----------|
-----------|-----------|-----------|-----------|-----------|-----------|
-----------|-----------|-----------|-----------|-----------|-----------|


-----------|-----------|-----------|-----------|-----------|-----------|
-----------|-----------|-----------|-----------|-----------|-----------|
-----------|-----------|-----------|-----------|-----------|-----------|
-----------|-----------|-----------|-----------|-----------|-----------|
-----------|-----------|-----------|-----------|-----------|-----------|
-----------|-----------|-----------|-----------|-----------|-----------|


-----------|-----------|-----------|-----------|-----------|-----------|
-----------|-----------|-----------|-----------|-----------|-----------|
-----------|-----------|-----------|-----------|-----------|-----------|
-----------|-----------|-----------|-----------|-----------|-----------|
-----------|-----------|-----------|-----------|-----------|-----------|
-----------|-----------|-----------|-----------|-----------|-----------|


-----------|-----------|-----------|-----------|-----------|-----------|
-----------|-----------|-----------|-----------|-----------|-----------|
-----------|-----------|-----------|-----------|-----------|-----------|
-----------|-----------|-----------|-----------|-----------|-----------|
-----------|-----------|-----------|-----------|-----------|-----------|
-----------|-----------|-----------|-----------|-----------|-----------|


-----------|-----------|-----------||
-----------|-----------|-----------||
-----------|-----------|-----------||
-----------|-----------|-----------||
-----------|-----------|-----------||
-----------|-----------|-----------||




Duration Legend
---------------
W - whole
H - half
Q - quarter
E - 8th
S - 16th
T - 32nd
X - 64th
. - note dotted
|-n-|  - n-tuplets


Tablature Legend
----------------
L - tied note
x - dead note
g - grace note
(n) - ghost note
> - accentuded note
NH - natural harmonic
AH - artificial harmonic
TH - tapped harmonic
SH - semi harmonic
PH - pitch harmonic
h - hammer on
p - pull off
b - bend
br - bendRelease
pb - preBend
pbr - preBendRelease
brb - bendReleaseBend
\n/ - tremolo bar dip
\n - tremolo bar dive
-/n - tremolo bar Release up
/n\ - tremolo bar inverted dip
/n - tremolo bar return
-\n - tremolo bar Release down
S - shift slide
s - legato slide
/ -  slide into from below or out of upwards
\ -  slide into from above or out of downwards
~ - vibrato
W - wide vibrato
tr - trill
TP - tremolo picking
T - tapping
S - slap
P - pop
< - fade in
^ - brush up
v - brush down





Comments


Popular Krokus tabs & chords
Headhunter Bass Tabs
Screaming In The Night Bass Tabs
School's Out Chords
American Woman Tabs
Heatstrokes Tabs
Midnight Maniac Tabs
Screaming In The Night Tabs
Shes Got Everything Intro Tabs
Stayed Awake All Night Intro Tabs
Burning Up The Night Ukulele


Song lyrics



↑ Back to top | Tablatures and chords are parodies/interpretations of the original songs. You may use it for private study, scholarship, research or language learning purposes only
© 2014 AZChords.com Contact us | Privacy policy | DMCA | Add/correct tabs | Request tabs | Top 50 tabs