» » »

Screaming In The Night Tabs (ver.2)

Artists:  A B C D E F G H I J K L M N O P Q R S T U V W X Y Z # 

Screaming In The Night Tabs (ver.2)

Krokus
Rating:
0/5 (0 votes)

Hard to play? Try these video lessons and learn fast.
                -----------------------------------------------------------------------
             Screaming In The Night - Krokus
-----------------------------------------------------------------------

Tuning:Standard
 capo at 1st fret 
  Intro RIFF 1
e|--1---1(1)1---1---1-1-1---1-1(1)1---1-1-1---1(1)1---|
B|--9---8h9-8---9---8-9-8---9-8h9-8---6-4/6---4/6-4---|
G|----------------------------------------------------|
D|----------------------------------------------------|
A|----------------------------------------------------|
E|----------------------------------------------------|
  
e|--1---1(1)1---1---1-(1)-1-1-11-1---1(1)1(1)1--1-1-1--1-1-1-1|
B|--9---8h9-8---9---9/11--9-8----9---8h9-8h9-8--6-4-6--4-6-4-1|
G|------------------------------------------------------------|
D|------------------------------------------------------------|
A|------------------------------------------------------------|
E|------------------------------------------------------------|
                                                     +
e|---------------------------18p16------------------------------|
B|-----13~~~~11h13-11~~~16h18------16h18-16h18-16~~~~----------8|
G|--10~~~~~~~----------------------------------------12------10-|
D|---------------------------------------------------12----10---|
A|---------------------------------------------------12---8-----|
E|--------------------------------------------------------------|
  VERSE RIFF 2
e|---8-----8--8----8-----8--8-8------|
B|---9-----9--8----9-----8--9-8------|play
G|--10----10--8---10-----8-10-8------|2x's
D|--10----10--8---10-----8-10-8------|
A|---8-----8--8----8-----8--8-8------|
E|-----------------------------------|
                   RIFF 3
e|-----------------8--8--8---8--8------8--8--8---8--8--------|
B|-----------------9--9--9---9--9-6----9--9--9---9--9--6-----|
G|----------------10-10-10--10-10-8~~~-10-10-10--10-10-8~~~--|
D|----------------10-10-10--10-10-8~~~-10-10-10--10-10-8~~~--|
A|-----6-----------8--8--8xx-8--8-6~~~-8--8--8xx-8--8--6~~~--|
E|--6h8--8p6-4--1---------------------1--------------------1-|

e|----8--8--8---8--8------8--8--8---8--8-------|
B|----9--9--9---9--9-6----9--9--9---9--9--6----|play
G|---10-10-10--10-10-8~~~-10-10-10--10-10-8~~~-|verse section 
D|---10-10-10--10-10-8~~~-10-10-10--10-10-8~~~-|2x's
A|----8--8--8xx-8--8-6~~~-8--8--8xx-8--8--6~~~-|
E|-----------------------1---------------------|
   play after 2nd verse
e|------------------------|
B|------------------------|
G|------------------------|
D|-11\8-5/6~~~11\8-6/8~~~-|
A|--9\6-3/4~~~-9\6-4/6~~~-|
E|------------------------|
 | 
e|------------------------|
B|--9-8-6/9~~~11-9-8/11~~~|
G|------------------------|
D|------------------------|
A|------------------------|
E|------------------------|
   CHORUS                
e|--------------------------------------------|
B|--------------------------------------------|
G|--------------------------------------------|
D|--10-10-10-8-10---10----10-10--6-66--6-666--|
A|---8--8--8-6--8----8-----8--8--4-44--4-444--|
E|--------------------------------------------|

e|--------------------------------------------|
B|--------------------------------------------|
G|--------------------------------------------|
D|--10-10-10-8-10---10----10-10--6-66--6-666--|
A|---8--8--8-6--8----8-----8--8--4-44--4-444--|
E|--------------------------------------------|


e|-----------------------------------------------|
B|-----------------------------------------------|
G|-----------------------------------------------|
D|--10-10-10-8-10---10-10-10-8-10--6-66--6-666---|
A|---8--8--8-6--8----8--8--8-6-8---4-44--4-444---|
E|-----------------------------------------------|

e|-----------------------------------------------------|
B|-----------------------------------------------------|
G|-----------------------------------------------------|
D|--10-10-10-8-10---10-10---10--12-10-8-10--6-66-6-666-|
A|---8--8--8-6--8----8--8-6--8--10--8-6--8--4-44-4-444-|
E|-----------------------------------------------------|
   BRIDGE
e|--------------------------------------------------------------|
B|--------------------------------------------------------------|
G|--5\xxx55\xxx5-6-5-3-5\xxx55\xxx5-6-5-3-5\xxx55\xxx5-6-5-3xxx-|
D|--5\xxx55\xxx5-6-5-3-5\xxx55\xxx5-6-5-3-5\xxx55\xxx5-6-5-3xxx-|
A|--3\xxx33\xxx3-4-3-1-3\xxx33\xxx3-4-3-1-3\xxx33\xxx3-4-3-1xxx-|
E|--------------------------------------------------------------|

e|------------|
B|------------|
G|------------|
D|--555-3-----|
A|--333-1-6-5-|
E|--------4-3-|
  SOLO RHYTHYM
e|---------------------------------------|
B|---------------------------------------|play
G|---------------------------------------|2x's
D|--10-1010--1010--6--10-1010--1010--8---|
A|---8--8-8xx-8-8--4---8--8-8xx-8-8--6---|
E|-------------------1-----------------1-|
  SOLO LEAD
e|--------------------------------------------------------------------|
B|--------------------------------------------------------------------|
G----10~~~---10h12-13-12h13p12-10~~~8h10p8/10-10h12p10/12-12h13p12h13-|
D|-10~-----10---------------------------------------------------------|
A|--------------------------------------------------------------------|
E|--------------------------------------------------------------------|

e|---------------14----------14----------14----------14-------|
B|--/16~~~~----14--17p14---14--17p14---14--17p14---14--17p14--|
G|----------16b---------16b---------16b---------16b-----------|
D|------------------------------------------------------------|
A|------------------------------------------------------------|
E|------------------------------------------------------------|

e|-------14------------------------------------------------------|
B|-----14--17p14-17b19r17p14-----------15\13-13~13\11-11~11\9-8~~|
G|--16b---------------------14h16p14-----------------------------|
D|----------------------------------16---------------------------|
A|---------------------------------------------------------------|
E|---------------------------------------------------------------|

e|---------------------|
B|--6-8-9-8~~~~~~9~~~~~|
G|---------------------|
D|---------------------|
A|---------------------|
E|---------------------|

 Play VERSE all the way through RIFF 2 is played 4x's here though.
 Play CHORUS song fades out with CHORUS

| /  slide up
| \  slide down
| h  hammer-on
| p  pull-off
| ~  vibrato
| +  harmonic
| x  Mute note
===============================================================================
            
Hard to play? Try these video lessons and learn fast. | Correct




comments powered by Disqus
↑ Back to top | Tablatures and chords are parodies/interpretations of the original songs. You may use it for private study, scholarship, research or language learning purposes only