>
 >
Screaming In The Night

Screaming In The Night Bass Tabs

Krokus - Screaming In The Night chords, tabs, tablatures, lyrics

Guitar lessons | Add/correct | Request | Top 50 tabs Artists:  A B C D E F G H I J K L M N O P Q R S T U V W X Y Z 0-9

Screaming In The Night Bass Tabs – Krokus

CD, Sheet music, Poster

Do you like Screaming In The Night? Share with your friends now
Bass TabsTabsTabs v2Tabs v3
-----------------------------------------------------------------------------
		                  
            
-----------------------------------------------------------------------------

Tuning: Standard

=============================================================================

Bass



G||-------|-------|-------|-------|-------|-------|-------|-------|-------|
D||-------|-------|-------|-------|-------|-------|-------|-------|-------|
A||-------|-------|-------|-------|-------|-------|-------|-------|-------|
E||-------|-------|-------|-------|-------|-------|-------|-------|-------|


                  Q.     E  Q    E  S  S    Q.     E  Q    E  S  S  
-------|-------|-------------------------|-------------------------|
-------|-------|-------------------------|-------------------------|
-------|-------|-----------------7--5s-7-|-----------------7--5s-7-|
-------|-------|--0------0--0----L-------|--0------0--0----L-------|


  Q.     E  Q    E  S  S    Q.     E  Q    E  S  S    Q.     E  H         
-------------------------|-------------------------|---------------------|
-------------------------|-------------------------|---------------------|
-----------------7--5s-7-|-----------------7--5s-7-|---------------------|
--0------0--0----L-------|--0------0--0----L-------|--0------0--0--------|


  Q.     E  Q    E  S  S    Q.     E  Q    E  S  S    Q.     E  Q    E  S  S  
-------------------------|-------------------------|-------------------------|
-------------------------|-------------------------|-------------------------|
-----------------7--5s-7-|-----------------7--5s-7-|-----------------7--5s-7-|
--0------0--0----L-------|--0------0--0----L-------|--0------0--0----L-------|


  Q.     E  Q    E  S  S    Q.     E  Q    E  S  S    Q.     E  Q    E  S  S  
-------------------------|-------------------------|-------------------------|
-------------------------|-------------------------|-------------------------|
-----------------7--5s-7-|-----------------7--5s-7-|-----------------7--5s-7-|
--0------0--0----L-------|--0------0--0----L-------|--0------0--0----L-------|


  Q.     E  Q    E  S  S    Q.     E  Q    E  S  S    E  E  E    H        E    
-------------------------|-------------------------|--------------------------|
-------------------------|-------------------------|--------9--7g9--------L\--|
-----------------7--5s-7-|-----------------7--5s-7-|-----9--------------------|
--0------0--0----L-------|--0------0--0----L-------|--7-----------------------|


  H        H           H        Q    E  S  S    Q.      E  Q    Q     
--------------------|------------------------|-----------------------|
--------------------|------------------------|-----------------------|
-----------7--------|----------------7--5h-7-|---------/7------------|
--0--------0--------|--0--------0------------|--0----------0----0----|


  H        Q    E  S  S    H        Q    E    E     H        Q    S  S S  S  
------------------------|------------------------|--------------------------|
------------------------|------------------------|--------------------------|
----------------7--5h-7-|----------------7--5g7--|---------------------5h-7-|
--0--------0------------|--0--------0------------|--0--------0----5h-7------|


  H        Q    E  S S    Q    Q    S S E  S S E      Q    E  E  E  E  E  E   
-----------------------|---------------------------|-------------------------|
-----------------------|---------------------------|-------------------------|
----------------7------|----------------5----------|-------7-----7--7--x--x--|
--0--------0-------0-0-|--0----0----L-7----7-0-3b--|--0----------------0--0--|


  E  E  E  E  E  E  E  E     Q    E  E  E  E  E  E   
--------------------------|-------------------------|
--------------------------|-------------------------|
--------------------------|-------7-----7--7--------|
--0--0-----8--8--8--8--8--|--0----------------0--0--|


  E  E  E   E   E   E   E   E     E  E  E  E  E  E  E  E   
-------------------------------|--------------------------|
-------------------------------|--------------------------|
-----7-------------------------|--------7-----7--7--------|
--0--------10--10--10--10--10--|--0--0--------------0--0--|


  E  E  E  E  E  E  E  E     E  E  E  E  E  E  E  E   
--------------------------|--------------------------|
--------------------------|--------------------------|
--7--7--------------------|--------7-----7--7--------|
-----------8--8--8--8--8--|--0--0--------------0--0--|


  E  E  E   E   E   E   E   E     H        H           H        Q    E  S  S  
-------------------------------|--------------------|------------------------|
-------------------------------|--------------------|------------------------|
--7--7-------------------------|-----------7--------|----------------7--5h-7-|
--0--0-----10--10--10--10--10--|--0--------0--------|--0--------0------------|


  Q.      E  Q    Q       H        Q    E  S  S    H        Q    E    E   
-----------------------|------------------------|------------------------|
-----------------------|------------------------|------------------------|
---------/7------------|----------------7--5h-7-|----------------7--5g7--|
--0----------0----0----|--0--------0------------|--0--------0------------|


  H        Q    S  S S  S    H        Q    E  S S    Q    Q    S S E  S S E    
--------------------------|-----------------------|---------------------------|
--------------------------|-----------------------|---------------------------|
---------------------5h-7-|----------------7------|----------------5----------|
--0--------0----5h-7------|--0--------0-------0-0-|--0----0----L-7----7-0-3b--|


  Q    E  E  E  E  E  E     E  E  E   E  E  E  E  E     Q    E  E  E  E  E  E   
-------------------------|---------------------------|-------------------------|
-------------------------|---------------------------|-------------------------|
-------7-----7--7--x--x--|---------------------------|-------7-----7--7--------|
--0----------------0--0--|--0--0-----/8--8--8--8--8--|--0----------------0--0--|


  E  E  E    E   E   E   E   E     E  E  E  E  E  E  E  E   
--------------------------------|--------------------------|
--------------------------------|--------------------------|
-----7--------------------------|--------7-----7--7--------|
--0--------/10--10--10--10--10--|--0--0--------------0--0--|


  E  E  E   E  E  E  E  E     E  E  E  E  E  E  E  E   
---------------------------|--------------------------|
---------------------------|--------------------------|
--7--7---------------------|--------7-----7--7--------|
-----------/8--8--8--8--8--|--0--0--------------0--0--|


  E  E  E    H         E      W                   H        E  E  E  E   
--------------------------|--------------------|-----------------------|
--------------------------|--------------------|-----------------------|
--7--7--------------------|--------------------|-----------3--------3--|
-----------/10---------L--|---L----------------|--------------0--3-----|


  Q.     E   E  E  E  E     H           Q.     E  Q.     E   
-------------------------|-----------|----------------------|
-------------------------|-----------|----------------------|
--3------Ls--5--------5--|--L--------|----------------------|
----------------2--3-----|-----------|--0------0--0------7--|


  Q.     E  Q    E  E     Q.     E  Q.     E     Q.     E  Q    S  S E    
-----------------------|----------------------|--------------------------|
-----------------------|----------------------|--------------------------|
-----------------7--0--|--3------3--3---------|--3------3--3---------7\--|
--0------0--0----------|-------------------5--|-----------------0-/7-----|


  Q.     E  Q.     E     Q.     E  Q    E  E     Q.     E  Q.     E   
----------------------|-----------------------|----------------------|
----------------------|-----------------------|----------------------|
----------------------|-----------------7--0--|--3------3--3---------|
--0------0--0------7--|--0------0--0----------|-------------------5--|


  Q.     E  Q    S  S E      Q.     E  Q.     E     Q.     E  Q    E  E   
--------------------------|----------------------|-----------------------|
--------------------------|----------------------|-----------------------|
--3------3--3---------7\--|----------------------|-----------------7--0--|
-----------------0-/7-----|--0------0--0------7--|--0------0--0----------|


  Q.     E  Q.     E     Q.     E  Q    S  S E      Q.     E  Q.     E   
----------------------|--------------------------|----------------------|
----------------------|--------------------------|----------------------|
--3------3--3---------|--3------3--3---------7\--|----------------------|
-------------------5--|-----------------0-/7-----|--0------0--0------7--|


  Q.     E  Q    E  E     Q.     E  Q.     E     Q.     E  Q.     E    
-----------------------|----------------------|-----------------------|
-----------------------|----------------------|-----------------------|
-----------------7--0--|--3------3--3---------|--3------3--3------3\--|
--0------0--0----------|-------------------5--|-----------------------|


  E  E   E  E  E  E  E  E     E   E  E  E  E  E  E  E   
---------------------------|---------------------------|
---------------------------|---------------------------|
--2--L\--------------2--2--|--L\-----------------------|
---------------------------|---------------------------|


  E  E   E  E  E  E  E  E     E   E  E  E  E  E  E  E   
---------------------------|---------------------------|
---------------------------|---------------------------|
--2--L\--------------2--2--|--L\-----------------------|
---------------------------|---------------------------|


  E  E   E  E  E  E  E  E     E   E  E  E  E  E  E  E   
---------------------------|---------------------------|
---------------------------|---------------------------|
--2--L\--------------2--2--|--L\-----------------------|
---------------------------|---------------------------|


  E  E   E  E  E  E  E  E     E  Q    Q    Q    E     E  E  E  E  E  E  E   E   
---------------------------|-----------------------|---------------------------|
---------------------------|-----------------------|---------------------------|
--2--L\--------------2--2--|--L--0-----------------|---------------------------|
---------------------------|----------3----2----0--|--0--0--0--0--0--0--7s--8--|


  E  E  E  E  E  E  E  E     E  E  E  E  E  E  E  E   
--------------------------|--------------------------|
--------------------------|--------------------------|
-----------3--3--3--3--3--|--------------------------|
--0--0--0-----------------|--0--0--0--0--0--0--0--0--|


  E  E  E  E  E  E  E  S  S    E  E  E  E  E  E  E  E   
----------------------------|--------------------------|
----------------------------|--------------------------|
-----------5--5--5--5--5s-7-|--------------------2--3--|
--0--0--0-------------------|--0--0--0--0--0--0--0--0--|


  E  E  E  E  E  E  E  E     E  E  E  E  E  E  E  E   
--------------------------|--------------------------|
--------------------------|--------------------------|
-----------3--3--3--3--3--|--------------------------|
--0--0--0-----------------|--0--0--0--0--0--0--0--0--|


  E  E   E  E  E  E  E  E     Q    Q    Q    Q       Q.     S  S E  E  E  E   
---------------------------|----------------------|--------------------------|
---------------------------|----------------------|--------------------------|
------------5--5--5--5--5--|-----------------7----|--------------5--5--5--7--|
--0--0--/7-----------------|--0----0----0---------|--0------5h-7-------------|


  Q     Q    Q    Q       Q.     S  S S  S E  E  S  S    H        Q    E    E   
-----------------------|------------------------------|------------------------|
-----------------------|--------------5h-7-5----------|------------------------|
-------/7--------------|---------5s-7---------7--5h-7-|----------------7--5g7--|
--0-----0----0----0----|--0---------------------------|--0--------0------------|


  Q    Q    E  S  S S  S E     Q    Q    Q    E  S  S  
----------------------------|-------------------------|
----------------------------|-------------------------|
--------------------5h-7-7--|-----------------7--5h-7-|
--0----0----0--5h-7---------|--0----0----0------------|


  Q    Q    E  E  E  S  S    H        Q    E  S  S    H        Q    E  E   
--------------------------|------------------------|----------------------|
--------------------------|------------------------|----------------------|
------------7--7--7--5h-7-|----------------7--5h-7-|----------------7-----|
--0----0----0-------------|--0--------0------------|--0--------0-------0--|


  Q     Q    Q    Q       H        Q    E  S  S    H        Q    E    E   
-----------------------|------------------------|------------------------|
-----------------------|------------------------|------------------------|
-------/7--------------|----------------7--5h-7-|----------------7--5g7--|
--0----------0----0----|--0--------0------------|--0--------0------------|


  H        Q    S  S S  S    H        Q    E  S  S    Q    Q    S S E  S S E    
--------------------------|------------------------|---------------------------|
--------------------------|------------------------|---------------------------|
---------------------5h-7-|----------------7--5h-7-|----------------5----------|
--0--------0----5h-7------|--0--------0------------|--0----0----L-7----7-0-3b--|


  Q    E  E  E  E  E  E     E  E  E   E  E  E  E  E     Q    E  E  E  E  E  E   
-------------------------|---------------------------|-------------------------|
-------------------------|---------------------------|-------------------------|
-------7-----7--7--x--x--|---------------------------|-------7-----7--7--------|
--0----------------0--0--|--0--0-----/8--8--8--8--8--|--0----------------0--0--|


  E  E  E    E   E   E   E   E     E  E  E  E  E  E  E  E   
--------------------------------|--------------------------|
--------------------------------|--------------------------|
-----7--------------------------|--------7-----7--7--------|
--0--------/10--10--10--10--10--|--0--0--------------0--0--|


  E  E  E   E  E  E  E  E     E  E  E  E  E  E  E  E   
---------------------------|--------------------------|
---------------------------|--------------------------|
--7--7---------------------|--------7-----7--7--------|
-----------/8--8--8--8--8--|--0--0--------------0--0--|


  E  E  E    H         E      W                   H        E  E  E  E   
--------------------------|--------------------|-----------------------|
--------------------------|--------------------|-----------------------|
--7--7--------------------|--------------------|-----------3--------3--|
-----------/10---------L--|---L----------------|--------------0--3-----|


  Q.     E   E  E  E  E     H           Q.     E  H         
-------------------------|-----------|---------------------|
-------------------------|-----------|---------------------|
--3------Ls--5--------5--|--L--------|---------7-----------|
----------------2--3-----|-----------|--0---------0--------|


  Q.     E  Q    E  E     Q.     E  Q.     E     Q.     E  Q    E  S  S  
-----------------------|----------------------|-------------------------|
-----------------------|----------------------|-------------------------|
---------7-------7--0--|--3------3--3---------|--3------3--3----L-------|
--0---------0----------|-------------------5--|--------------------0-/7-|


  Q.     E  Q.     E     Q.     E  Q    Q       Q.     E  Q.     E   
----------------------|----------------------|----------------------|
----------------------|----------------------|----------------------|
----------------------|-----------------7----|--3------3--3---------|
--0------0--0------L--|--0------0--0---------|-------------------5--|


  Q.     E  Q    E  E     Q.     E  H           Q.     E  Q    E  E   
-----------------------|---------------------|-----------------------|
-----------------------|---------------------|-----------------------|
--3------3--3----L--7--|---------7-----------|---------7-------7--0--|
-----------------------|--0---------0--------|--0---------0----------|


  Q.     E  Q.     E     Q.     S S E  E  E  S  S    Q.     E  E   E  Q     
----------------------|---------------------------|------------------------|
----------------------|---------------------------|------------------------|
--3------3--3---------|--3------3-3-3--3--3-------|------------------------|
-------------------5--|----------------------0-/7-|--0------0--0\-----0----|


  Q.     E  E  E  E  E     Q.     E  Q.     E     Q.     E  Q    E  E   
------------------------|----------------------|-----------------------|
------------------------|----------------------|-----------------------|
---------------6--5--4--|--3------3--3---------|--3------3--3----L--L--|
--0------0--0-----------|-------------------x--|-----------------------|


  Q.     E  Q    Q       Q.     E  Q    Q       Q.     E  Q.     E   
----------------------|----------------------|----------------------|
----------------------|----------------------|----------------------|
---------5--7---------|---------5--7---------|--3------3--3---------|
--0--------------0----|--0--------------0----|-------------------5--|


  Q.     S S E  E  E  S  S    Q.     E  E   E  Q       Q.     E  E  E  E  E   
---------------------------|------------------------|------------------------|
---------------------------|------------------------|------------------------|
--3------3-3-3--3--3-------|------------------------|---------------6--5--4--|
----------------------0-/7-|--0------0--0\-----0----|--0------0--0-----------|


  Q.     E  Q.     E     Q.     S S E  E  E  S  S    Q.     E  E   E  Q     
----------------------|---------------------------|------------------------|
----------------------|---------------------------|------------------------|
--3------3--3---------|--3------3-3-3--3--3-------|------------------------|
-------------------x--|----------------------0-/7-|--0------0--0\-----0----|


  Q.     E  Q    Q       Q.     E  Q.     E     Q.     S S E  E  E  S  S  
----------------------|----------------------|---------------------------|
----------------------|----------------------|---------------------------|
---------5--7---------|--3------3--3---------|--3------3-3-3--3--3-------|
--0--------------0----|-------------------x--|----------------------0-/7-|


  Q.     E  E   E  Q       Q.     E  E  E  E  E     Q.     E  Q.     E   
------------------------|------------------------|----------------------|
------------------------|------------------------|----------------------|
------------------------|---------------6--5--4--|--3------3--3---------|
--0------0--0\-----0----|--0------0--0-----------|-------------------x--|


  Q.     S S E  E  E  S  S   
---------------------------||
---------------------------||
--3------3-3-3--3--3-------||
----------------------0-/7-||




Duration Legend
---------------
W - whole
H - half
Q - quarter
E - 8th
S - 16th
T - 32nd
X - 64th
. - note dotted
|-n-|  - n-tuplets


Tablature Legend
----------------
L - tied note
x - dead note
g - grace note
(n) - ghost note
> - accentuded note
NH - natural harmonic
AH - artificial harmonic
TH - tapped harmonic
SH - semi harmonic
PH - pitch harmonic
h - hammer on
p - pull off
b - bend
br - bendRelease
pb - preBend
pbr - preBendRelease
brb - bendReleaseBend
\n/ - tremolo bar dip
\n - tremolo bar dive
-/n - tremolo bar Release up
/n\ - tremolo bar inverted dip
/n - tremolo bar return
-\n - tremolo bar Release down
S - shift slide
s - legato slide
/ -  slide into from below or out of upwards
\ -  slide into from above or out of downwards
~ - vibrato
W - wide vibrato
tr - trill
TP - tremolo picking
T - tapping
S - slap
P - pop
< - fade in
^ - brush up
v - brush down





Comments


Popular Krokus tabs & chords
Headhunter Bass Tabs
Bad Love Chords
American Woman Tabs
Eat The Rich Tabs
Long Stick Goes Boom Intro Tabs
Midnite Maniac Tabs
Rock City Tabs
Screaming In The Night 2 Tabs
Shes Got Everything Intro Tabs
Smelly Nelly Intro Tabs


Song lyrics



↑ Back to top | Tablatures and chords are parodies/interpretations of the original songs. You may use it for private study, scholarship, research or language learning purposes only
© 2014 AZChords.com Contact us | Privacy policy | DMCA | Add/correct tabs | Request tabs | Top 50 tabs