» » »

Screaming In The Night Tabs (ver.1)

Artists:  A B C D E F G H I J K L M N O P Q R S T U V W X Y Z # 

Screaming In The Night Tabs (ver.1)

Krokus
Rating:
3/5 (4 votes)

Hard to play? Try these video lessons and learn fast.
                Krokus-Screaming in the Night


Tune down 1/2 step

Riff:1 (Intro-Clean)
|-----h-------------------h---------------------h-----------------11|
|-8--7-8-7--8--7-8-7--8--7-8-7--3/5--3/5-3--8--7-8-7--8--8/10-8-7---|
|-0--0-0-0--0--0-0-0--0--0-0-0--0/0------0--0--0-0-0--0-------0-0---|
|-------------------------------------------------------------------|
|-------------------------------------------------------------------|
|-------------------------------------------------------------------|

Cont.                           Solo:1 (Intro-Solo/Distorted)
|-----h---h---------------h----|--------------------------17\15~~~--|
|-8--7-8-7-8-7--5-3-3/5--3-5-3-|---12~~----p--10~~--15/17-----------|
|-0--0-0-0-0-0------0/0------0-|-9-------11-9-----------------------|
|------------------------------|------------------------------------|
|------------------------------|------------------------------------|
|------------------------------|------------------------------------|

Cont.                 Fill:1 (Clean)   Riff:2 (Clean)
|--------------------|----------------|-----------------------------|
|-15/17-15/17-15~~~--|---------4\-----|-8--8-7--8--7-8-7--8--8-7--8-|
|--------------------|-------2--------|-0--0-0--0--0-0-0--0--0-0--0-|
|--------------------|----------------|-----------------------------|
|--------------------|-----2----------|-----------------------------|
|--------------------|---2------------|-----------------------------|

Cont.    Fill:2         Riff:3
|-------|--------------|--------------------------------------------|
|-7-8-7-|--------------|--------------------------------------------|
|-0-0-0-|--------------|---9--9-9-x-x-9-9--5------9--9-9-x-x-9-9--7-|
|-------|--------------|---9--9-9-x-x-9-9--5------9--9-9-x-x-9-9--7-|
|-------|--h--5---p----|---7--7-7-x-x-7-7--3------7--7-7-x-x-7-7--5-|
|-------|-5-7----7-5\3-|-0--------------------0-0-------------------|

Fill:3         Fill:4
|-14----------|-----------------------------------------------------|
|----15-------|-----------------------------------------------------|
|-------14~~~-|-/9-7-9-7/9~~--/11-9-11-9/11~~-----------------------|
|-------------|-----------------------------------------------------|Gtr.1
|-------------|-----------------------------------------------------|
|-------------|-----------------------------------------------------|
|
|-------------|-----------------------------------------------------|
|-------------|-----------------------------------------------------|
|-------------|-/9-7-9-7/9~~--/14-12-14-12/14~~---------------------|
|-------------|-----------------------------------------------------|Gtr.2
|-------------|-----------------------------------------------------|
|-------------|-----------------------------------------------------|

Riff:4
|-------------------------------------------------------------------|
|-------------------------------------------------------------------|
|-9--9-9--9--9-9--5--5-5--5--5-5--9--9-9--9--9-9--5--5-5--5--5-5--9-|
|-9--9-9--9--9-9--5--5-5--5--5-5--9--9-9--9--9-9--5--5-5--5--5-5--9-|
|-7--7-7--7--7-7--3--3-3--3--3-3--7--7-7--7--7-7--3--3-3--3--3-3--7-|
|-------------------------------------------------------------------|

Cont.
|-------------------------------------------------------------------|
|-------------------------------------------------------------------|
|-7-9\--9--7-9--5--5-5--5--5-5--9--7-9\--9--7-9-8-7-6-5--5-5--5--5-5|
|-7-9\--9--7-9--5--5-5--5--5-5--9--7-9\--9--7-9-8-7-6-5--5-5--5--5-5|
|-5-7\--7--5-7--3--3-3--3--3-3--7--5-7\--7--5-7-6-5-4-3--3-3--3--3-3|
|-------------------------------------------------------------------|

Riff:5
|-------------------------------------------------------------------|
|-------------------------------------------------------------------|
|-4--x-x-x-x-4-4--x-x-x-4/5-4-2--4--x-x-x-x-4-4--x-x-x-4/5-4-2------|
|-4--x-x-x-x-4-4--x-x-x-4/5-4-2--4--x-x-x-x-4-4--x-x-x-4/5-4-2------|
|-2--x-x-x-x-2-2--x-x-x-2/3-2-0--2--x-x-x-x-2-2--x-x-x-2/3-2-0------|
|-------------------------------------------------------------------|

Cont.
|-------------------------------------------------------------------|
|-------------------------------------------------------------------|
|-4--x-x-x-x-4-4--x-x-x-4/5-4-2--4--x-x-x-x-4--4-2------------------|
|-4--x-x-x-x-4-4--x-x-x-4/5-4-2--4--x-x-x-x-4--4-2-5-4--------------|
|-2--x-x-x-x-2-2--x-x-x-2/3-2-0--2--x-x-x-x-2--2-0-5-4--------------|
|--------------------------------------------------3-2--------------|

Solo:2
|------------------------p------------------------------------------|
|-0-0-3/5~~--0-5-7-8-7--8-7\5~~--0-5-3-0-7-5-0-8-7-0-10-8-0-/15~~~--|
|-------------------------------------------------------------------|
|-------------------------------------------------------------------|
|-------------------------------------------------------------------|
|-------------------------------------------------------------------|

Cont.
|---------12---p-----------12---p------------12---p------------12---|
|----)-12----15-12----)-12----15-12-----)-12----15-12-----)-12----12|
|-14'--------------14'---------------14'---------------14'----------|
|-------------------------------------------------------------------|
|-------------------------------------------------------------------|
|-------------------------------------------------------------------|

Cont.
|----)--------------------------------------------------------------|
|-15'--12----------15\12-12-12\10-10-10\8-8-8\7-7-7\5--5-7-8-7-7~~~-|
|---------12--------------------------------------------------------|
|------------14~~---------------------------------------------------|
|-------------------------------------------------------------------|
|-------------------------------------------------------------------|

Riff:6 (clean)
|-12--12-10--12--10-12-10--12--12-10--12--10-12-10--12--12-10-------|
|-------------------------------------------------------------------|
|-------------------------------------------------------------------|
|-------------------------------------------------------------------|Gtr.1
|-------------------------------------------------------------------|
|-------------------------------------------------------------------|
|
|-------------------------------------------------------------------|
|-8~---------------------------------------Trill~~~~~~~~~-----------|
|-----------------------------/9-7-9-7/9\7-7-9-7-9-7-9-7-9----------|
|-------------------------------------------------------------------|Gtr.2
|-------------------------------------------------------------------|
|-------------------------------------------------------------------|
            
Hard to play? Try these video lessons and learn fast. | Correct




comments powered by Disqus
↑ Back to top | Tablatures and chords are parodies/interpretations of the original songs. You may use it for private study, scholarship, research or language learning purposes only