>
 >
Midnite Maniac

Midnite Maniac Guitar Tabs

Krokus - Midnite Maniac chords, tabs, tablatures, lyrics

Guitar lessons | Add/correct | Request | Top 50 tabs Artists:  A B C D E F G H I J K L M N O P Q R S T U V W X Y Z 0-9

Midnite Maniac Guitar Tabs – Krokus

CD, Sheet music, Poster

Do you like Midnite Maniac? Share with your friends now
Tabs
Krokus – “Midnite Maniac” from the 1984 album The Blitz

Tablature Explanation:
	e - E	= string names, high to low
	’  	= fly picking
	b	= bend
	r	= release
	x	= mute
	/	= slide
	~	= vibrato / tremolo 
	=	= sustain

Intro
e|--------------------------------------------|-------------------------|--------|
B|--------------------------------------------|-------------------------|3-------|
G|--------------------------------------------|-------------------------|2--2----|
D|--------------------------0-4-7-------------|-------------------------|0--2--2-|
A|--------------0-4-7-0-4-7-------0-4-7-------|--------------0-4-7-0-4-7|0--0--2-|
E|-0--4-7-0-4-7-------------------------0-4-7-|-0--4-7-0-4-7------------|------0-|
                                                      

Verse
e|---------------------------------------------------------0--|
B|---------------------------------------------------------0--|
G|---------------6/7---------------6/7-------6-------4-----x--|
D|---------------6/7---------------6/7-------6-------4-----2--|
A|---------------4/5---------------4/5-------4-------2-----2--|
E|-0-0-0-0-0-0-0-----0-0-0-0-0-0-0-----0-0-0---0-0-0--3b-0----|
                                                     

|---------------------------------------------------------0--|
|---------------7/8---------------7/8-------7-------5-----x--|
|---------------6/7---------------6/7-------6-------4-----2--|
|---------------4/5---------------4/5-------4-------2-----2--|
|-0-0-0-0-0-0-0-----0-0-0-0-0-0-0-----0-0-0---0-0-0--3b-0----|
|------------------------------------------------------------|
                                   

Pre-Chorus
e|-3-------------0-------------3-----------------------------------------------|
B|-3-------------x-------------3-----------------------------------------------|
G|-0-------------2-------------0---------------4-4-4-4-4-4-4-4-4-4-4-4-4-4-4-4-|
D|-0-------------2-------------0---------------4-4-4-4-4-4-4-4-4-4-4-4-4-4-4-4-|
A|-x-------------0-------------x---------------2-2-2-2-2-2-2-2-2-2-2-2-2-2-2-2-|
E|-3---------------------------3-----------------------------------------------|

Chorus
e|--------------------------|------------------|
B|----------------3-3-------|------------------|
G|----------------2-2---2-2-|------------------|
D|-2--2------2----0-0---2-2-|-2--2------2----2-|
A|-2--2------2----0-0---0-0-|-2--2------2----2-|
E|-0--0---3b-0--------------|-0--0---3b-0----0-|
                             

Guitar Solo
e|-3’’’-5’’’-7’’’|-3’’-5’’-7’’-8’’-7’’-8’’-10’’-12’’-14~~~|
B|-3’’’-3’’’-3’’’|----------------------------------------|
G|---------------|----------------------------------------|
D|---------------|----------------------------------------|
A|---------------|----------------------------------------|
E|---------------|----------------------------------------|

|-3/5-5--5-5---5-5-3-3-0-0-3-|-5-5-8-8-10-10-12-12-15-15-17-17--17~~|
|-3/5-5--5-5---5-5-3-3-0-0-3-|-5-5-8-8-10-10-12-12-15-15-17-17--17~~|
|----------------------------|--------------------------------------|
|----------------------------|--------------------------------------|
|----------------------------|--------------------------------------|
|----------------------------|--------------------------------------|

|-----------17’’’-|-3-0-3-5-3-5-7-5-7-8-7-8-10-8-10-12-10-12-15-17-17b-17b===|
|-15b-15b========-|----------------------------------------------------------|
|-----------------|----------------------------------------------------------|
|-----------------|----------------------------------------------------------|
|-----------------|----------------------------------------------------------|
|-----------------|----------------------------------------------------------|

|---------------------------------|-------15-17-15---|
|22b-22b-22b-22b-22b-22b--17b=r=b-|-15-17----------17|
|---------------------------------|------------------|
|---------------------------------|-----|
|---------------------------------|------------------|
|---------------------------------|------------------|

|15-17-19b-19b-19b-19b-19b~~~~~-19b-19b-19b--------------|
|-------------------------------------------20=b==r==b~~~|
|--------------------------------------------------------|
|--------------------------------------------------------|
|--------------------------------------------------------|
|--------------------------------------------------------|
				      

Outro
e|--------------------------------------------|-------------------------|
B|--------------------------------------------|-------------------------|
G|--------------------------------------------|-------------------------|
D|--------------------------0-4-7-------------|-------------------------|
A|--------------0-4-7-0-4-7-------0-4-7-------|--------------0-4-7-0-4-7|
E|-0--4-7-0-4-7-------------------------0-4-7-|-0--4-7-0-4-7------------|

|-----------------0-----|
|3-3--------------0-----|
|2-2---2-2--------x-----|
|0-0---2-2---2--2-2----2|
|0-0---0-0---2--2-2----2|
|------------0--0-0----0|





Comments


Popular Krokus tabs & chords
Headhunter Bass Tabs
Screaming In The Night Bass Tabs
American Woman Tabs
Angel Of My Dream Intro Tabs
Our Love Tabs
Rock City Tabs
Screaming In The Night 1 Tabs
Screaming In The Night 2 Tabs
Shes Got Everything Intro Tabs
Schools Out Ukulele


Song lyrics



↑ Back to top | Tablatures and chords are parodies/interpretations of the original songs. You may use it for private study, scholarship, research or language learning purposes only
© 2014 AZChords.com Contact us | Privacy policy | DMCA | Add/correct tabs | Request tabs | Top 50 tabs