» » »

Heatstrokes Tabs (ver.1)

Artists:  A B C D E F G H I J K L M N O P Q R S T U V W X Y Z # 

Heatstrokes Tabs (ver.1)

Krokus
Rating:
5/5 (3 votes)

Hard to play? Try these video lessons and learn fast.
                
Krokus "Heatstrokes" from the album "Metal Rendez-vous"

=======================================================================
==                       TABLATURE EXPLANATION                        ==
========================================================================

----------                ----------                ----t---
----5h8--- Hammeron       ----(8)--- Ghost          ----6--- Tap
----------                ---------- Note           --------
----5p8--- Pulloff        ----------                --------

----------                ----------                -----p--
----5/8--- Slide Up       -----x---- Dead           -----7-- Pop
----------                ---------- Note           --s-----
----5\8--- Slide Down     ----------                --5----- Slap 

----------                ||------|| Repeat         --------
----5~~~-- Vibrato        ||*----*||                ---5^--- Bend
----------                ||*----*||                --------
----------                ||------||                --------


         


                                                        (von Arb/von Rohr)

            Main Riff                                       Verse       
E---||---------------------------------------------||--||---------------
B---||---------------------------------------------||--||------3--3-----
G---||*-------------------------------------------*||--||*-----0--0-----
D---||*-----2--2-------2-------2--2-------5-------*||--||*--2--5--4-----
A---||------0--0--3h4-----3h4--0--0--6h7-----6h7---||--||---0-----------
E---||---------------------------------------------||--||---------------
                                                                        

               Chorus                                                   
E----------||--------------------||--||---------------------------------
B---3------||--------------------||--||---------------------------------
G---0-----*||-----2-----5-----2--||--||*--6--6--7--5h6--6--7--5h6--6----
D---5--2--*||-----0--2--5-----0--||--||*--7--7--7--7-7--7--7--7-7--7----
A------0---||--2-----0--0--2-----||--||---------------------------------
E----------||--0-----------0-----||--||---------------------------------
                                                                        

                       fast picking                 4x                  
E------------------||--8---7--5--7--8---7--14--||----------5h8p5--------
B------------------||--10--8--7--8--10--8--13--||---8p5h8---------------
G---7--5h6--6--7--*||--------------------------||*----------------------
D---7--7-7--7--7--*||--------------------------||*----------------------
A------------------||--------------------------||-----------------------
E------------------||--------------------------||-----------------------
                                                                        

                        4x              fast picking   8x               
E----||---------5--||---------------||--15-----|--||---15p12------12----
B----||--8p5h8-----||---8p5-----5---||--14-----|--||----------12--------
G---*||------------||*-------7-----*||---------|--||*-------------------
D---*||------------||*-------------*||---------|--||*-------------------
A----||------------||---------------||---------|--||--------------------
E----||------------||---------------||---------|--||--------------------
                                                                        

              6x                        fast picking                    
E----||--||---17p14------14---||--17\|-----|-----------------|----------
B----||--||----------15-------||-----|-----|-----------------|----------
G---*||--||*-----------------*||-----|-----|-----------------|-----5----
D---*||--||*-----------------*||-----|--7--|-----------------|--7-------
A----||--||-------------------||-----|-----|-----------------|----------
E----||--||-------------------||-----|-----|--5--4--3--2--1--|----------
                                                                        

                                           7x                           
E-------------------|-----------------||---------------||---------------
B-------------------|-----------------||---8p5-----5---||--8p5----------
G---^-----------5^--|-----------------||*-------7-----*||-------7-------
D------7--7--7------|-----------------||*-------------*||---------------
A-------------------|-----------------||---------------||---------------
E-------------------|--5--8--8--5--8--||---------------||---------------
                                                                        

         6x (with p.m.)                                                 
E---||------------||
B---||---8p5------||
G---||*-------7--*||
D---||*----------*||
A---||------------||
E---||------------||
                                                                        
          4x                tr (with whammy bar)  3x                  
E------||----------h8p5---||-------|-----------||---------------||------
B------||---8p5h8---------||--8p5--|-----------||---------------||------
G------||*---------------*||-------|--6--6--7--||*--5p6--6--7--*||------
D------||*---------------*||-------|--7--7--7--||*--7-7--7--7--*||------
A------||-----------------||-------|-----------||---------------||------
E------||-----------------||-------|-----------||---------------||------
                                                                        

                                                                  3x    
E------------------------------------------------|-----------||---------
B------------------------------------------------|-----------||---------
G---5--5--7--7--5--5--7--7--5--5--7--7--5--5--7--|--6--6--7--||*--5-----
D---7--7--7--7--7--7--7--7--7--7--7--7--7--7--7--|--7--7--7--||*--7-----
A------------------------------------------------|-----------||---------
E------------------------------------------------|-----------||---------
                                                                        

                   fast picking                                         
E--------------||--15--13--|--------------------------------------------
B--------------||--14--12--|--------------------------------------------
G---p6--6--7--*||----------|--------------------------------------------
D----7--7--7--*||----------|--------------------------------------------
A--------------||----------|--------------------------------------------
E--------------||----------|--------------------------------------------
                                                                        

                                                                        



Main Riff

Verse Riff
I know you call me a dirty lover
But that's exactly what you need
It's not the talkin', not even the jokin'
It's bedtime action, baby till you bleed

Chorus Riff
Heatstrokes fire burning smoke oh yeah

Verse Riff
I got to do it, twice or more tonight
Oh baby I need you, your pants are so tight
Let's get some shelter, I need it fast and hot
So take your umbrella, and we can do it on the spot

Heatstrokes fire burning smoke



========================================================================
==               Created with BUCKET O' TAB for Windows               ==
========================================================================
            
Hard to play? Try these video lessons and learn fast. | Correct




comments powered by Disqus
↑ Back to top | Tablatures and chords are parodies/interpretations of the original songs. You may use it for private study, scholarship, research or language learning purposes only