» » »

Kristofer Astrom, Yeah Oh Thats Nice Tabs (ver.1)

Artists:  A B C D E F G H I J K L M N O P Q R S T U V W X Y Z # 

Yeah Oh Thats Nice Tabs (ver.1)

Kristofer Astrom Tabs
Rating:
0/5 (0 votes)
Yeah Oh Thats Nice lessons Tabs too difficult? Try these video lessons and learn fast
                 Bb      F/A            F
|----------------|---------------------|
|----------------|---------------------|
|-------3--------|---------------------|
|-----3-----3----|-----3---------------|
|-0h1-----0---0--|-(0)-----3---------3-|
|----------------|-------1---1-(1)-1---|


  Bb          F/A            F
|----------------|-----------------------|
|----------------|-----------------------|
|-------3--------|-----------------------|
|-----------3----|-----3-----------------|
|-0h1-1---1---0--|-(0)---0-3-----------3-|
|----------------|-----------1-(1)-(1)---|


  Bb          F/A          F        Bb-5              Bb
|----------------|----------------|-------------|----------------------|
|----------------|----------------|-------------|----------------------|
|-------3--------|----------------|-------------|----------------------|
|-----------3----|---3------------|-2--2---2-2--|-(2)-3-(3)-3-3-(3)----|
|-0h1-1---1---0--|-0---0-3------3-|-1--1-1-1-1--|-(1)-1-(1)---------1--|
|----------------|---------1--1---|-------------|----------------------|



Stick:
F Gm F/A F
F Gm F/A Gm F


how about tomorrow
how about we share the day
how about tonight
at some safe place

how come it happened
how come I couldn't see
how come I'm not to you
what I could be

say you're not a dream
tell me you're my victory
the rain is fighting with my windows
wants to get in

if I could heal you
if I could promise you
everything will be fine
you know I would
            

comments powered by Disqus
↑ Back to top | Kristofer Astrom Tabs for Yeah Oh Thats Nice. Lyrics for acoustic guitar and electric guitar. Tablatures and chords are parodies/interpretations of the original songs. You may use it for private study, scholarship, research or language learning purposes only