» » »

Kristofer Astrom, Well Go On Tabs (ver.1)

Artists:  A B C D E F G H I J K L M N O P Q R S T U V W X Y Z # 

Well Go On Tabs (ver.1)

Kristofer Astrom Tabs
Rating:
0/5 (0 votes)
Well Go On lessons Tabs too difficult? Try these video lessons and learn fast
                
tuning: e-b-g-d-a-C <-- TUNE YOUR LOW E-STRING DOWN TO C!
capo 2nd fret

intro
 e|---------------------------------------------------------0h1p0---|
 b|---------------------------1-----------------------1-----------1-|
 g|-----------------------0-------0---------------0-------0---------|
 d|-----2-------2-------2-------2-------2-------2-------2-----------|
 a|-0---------------0------(0)------------------------------3-------|
 c|---------------------------------0--------------(0)--------------|
  ( 1   +   2   +   3   +   4   |   1   +   2   +   3   +   4   +   )

 e|---------------------------------------------------------0h1p0---|
 b|---------------------------1-----------------------1-----------1-|
 g|-----------------------0-------0---------------0-------0---------|
 d|-----2-------2-------2-------2-------2-------2-------2-----------|
 a|-0-------0-------0-------0-------------------------------3-------|
 c|---------------------------------0-------0------(0)--------------|
  ( 1   +   2   +   3   +   4   |   1   +   2   +   3   +   4   +   )

 e|---------------------------------------------------------0h1p0---|
 b|---------------------------1-----------------------1-----------1-|
 g|-----------------------0-------0---------------0-------0---------|
 d|-----2-------2-------2-------2-------2-------2-------2-----------|
 a|-0---------------0------(0)------------------------------3-------|
 c|---------------------------------0-------0------(0)--------------|
  ( 1   +   2   +   3   +   4   |   1   +   2   +   3   +   4   +   )

 e|---------------------------------------------------------0h1p0---|
 b|---------------------------1-----------------------1-----------1-|
 g|-----------------------0-------0---------------0-------0---------|
 d|-----2-------2-------2-------2-------2-------2-------2-----------|
 a|-0--------------(0)-------0-------------------------------3------|
 c|---------------------------------0-------0------(0)--------------|
  ( 1   +   2   +   3   +   4   |   1   +   2   +   3   +   4   +   )

verse
 e|-----------------------------------------------------------------|
 b|---------------------------1-------------------------------1-----|
 g|-----------------------0-------0-----------------------0-------0-|
 d|-----2-------2-------2-------2-------2-------2-------2-------2---|
 a|-0------(0)-----(0)------0---------------------------------------|
 c|---------------------------------0-------0-------0-------0-------|
  ( 1   +   2   +   3   +   4   |   1   +   2   +   3   +   4   +   )

chorus
 e|-----------------------------------------------------------------|
 b|---------------------------1-------------------------------------|
 g|-----------------------0-------0-----------------------0---------|
 d|-----2-------2-------2-------2-------2-------2-------2-----------|
 a|-0------(0)-----(0)------0-------1-------1-------1-------1-------|
 c|-----------------------------------------------------------------|
  ( 1   +   2   +   3   +   4   |   1   +   2   +   3   +   4   +   )

 e|-1-------0-------0h1-------1-----0h1p0-----------|
 b|-------1-------1-------3-------3-------3---------|
 g|-----2-------0-------2-------2-----------2p0-----|
 d|-3-------2-------0-------0-------0-----------2p0-|
 a|-------------------------------------------------|
 c|-------------------------------------------------|
  ( 1   +   2   +   3   +   4   |   1   +   2   +   )

end                                                       ritardando
 e|---------------------------------------------------------0h1p0---|
 b|---------------------------1-----------------------1-----------1-|
 g|-----------------------0-------0---------------0-------0---------|
 d|-----2-------2-------2-------2-------2-------2-------2-----------|
 a|-0---------------0------(0)------------------------------3-------|
 c|---------------------------------0--------------(0)--------------|
  ( 1   +   2   +   3   +   4   |   1   +   2   +   3   +   4   +   )

 e|-0---------------------------|
 b|-1---------------------------|
 g|-0---------------------------|
 d|-2---------------------------|
 a|-0---------------------------|
 c|-----------------------------|
  ( 1   +   2   +   3   +   4   )
            

comments powered by Disqus
↑ Back to top | Kristofer Astrom Tabs for Well Go On. Lyrics for acoustic guitar and electric guitar. Tablatures and chords are parodies/interpretations of the original songs. You may use it for private study, scholarship, research or language learning purposes only