>
 >
The Wild

The Wild Guitar Tabs

Kristofer Astrom - The Wild chords, tabs, tablatures, lyrics

Guitar lessons | Add/correct | Request | Top 50 tabs Artists:  A B C D E F G H I J K L M N O P Q R S T U V W X Y Z 0-9

The Wild Guitar Tabs – Kristofer Astrom

CD, Sheet music, Poster

Do you like The Wild? Share with your friends now
Tabs

tuning: e-b-g-d-a-c <-- TUNE YOUR LOW E-STRING DOWN TO C!
capo 2nd fret

intro/verse
 e|-0---0---------0-------0---0---0-----0---------0-----------------|
 b|-1---1-----1-x-1-1---1-1---1-x-1-----1-----1-----0h1---3---1---1-|
 g|-0---0-----0-x-0-0---0-0---0-x-0-0---0-------0-------0-------0---|
 d|-2---2-----2-x---2---2-3---2-x-0-0---0---------------0-------0---|
 a|-3-----------x---3---3-3---3-x-3-2---2-------x-------x-------x---|
 c|-0---------------------------------------------------------------|
  ( 1   2   3   4 | 1   2   3   4 | 1   2   3   4 | 1   2   3   4   )

 e|-----0-----0---x-------0---0---0-----0-----0-----------0---0---0-|
 b|-----5-----5-x-x-5---5-5---5-x-0-----1-----1-x-1-1-----1---1-x-1-|
 g|-----5-----5-x-x-5---5-5---5-x-0-0---0-----0-x-0-0---0-0---0-x-0-|
 d|-----2-------x---0h2-2-3---2-x-0-2---2---2-2-x-2-0h2-2-3---2-x-0-|
 a|-----x-------x---x---x-------x---3-------3---x---3---3-3---3-x---|
 c|-5---5-----------5---5-----------0-------0-------0---------------|
  ( 1   2   3   4 | 1   2   3   4 | 1   2   3   4 | 1   2   3   4   )

 e|-0---0---------0-------0---0---0-----0---------0-----------------|
 b|-1---1-----1-x-1-1---1-1---1-x-1-----1-----1-----0h1---3---1-----|
 g|-0---0-----0-x-0-0---0-0---0-x-0-0---0-------0-------0-------0-0-|
 d|-2---2-----2-x---2---2-3---2-x-0-0---0---------------0-------0---|
 a|-3-----------x---3---3-3---3-x-3-2---2-------x-------x-------x---|
 c|-0---------------------------------------------------------------|
  ( 1   2   3   4 | 1   2   3   4 | 1   2   3   4 | 1   2   3   4   )

 e|-----0-----0---0-------0---0---0-----0-----0-----------0---0---0-|
 b|-----5-----5-x-5-5---5-5---5-x-0-----1-----1-x-1-1-----1---1-x-1-|
 g|-----5-----5-x-5-5---5-5---5-x-0-0---0-----0-x-0-0---0-0---0-x-0-|
 d|-----2-------x---0h2-2-3---2-x-0-2---2-----2-x-2-0h2-2-3---2-x-0-|
 a|-----x-------x---x---x-------x---3-----------x---3---3-3---3-x---|
 c|-5---5-----------5---5-----------0---------------0---------------|
  ( 1   2   3   4 | 1   2   3   4 | 1   2   3   4 | 1   2   3   4   )

chorus
 e|---0-------0---0---------0-----0---0-------0---0---------0-----0-|
 b|-1-1-x-1-x-1-x-1-x-0-x-1-1---x-1-1-1-x-1-x-1-x-1-x-0-x-1-1---x-1-|
 g|-2-2-x-0-x-0-x-2-x-0-x-0-0---x-0-2-2-x-0-x-0-x-2-x-0-x-0-0---x-0-|
 d|-3-3-x-2-x-0-x-2-x-0-x-2-2---x-2-3-3-x-2-x-0-x-2-x-0-x-2-2---x-2-|
 a|-----------2---0---x---3-3---x-3-----------2---0---x---3-3---x-3-|
 c|-------------------7-------------------------------7-------------|
  ( 1   2   3   4 | 1   2   3   4 | 1   2   3   4 | 1   2   3   4   )

 e|---0-------0---0---------------0---0-------0---------0-----------|
 b|-1-1-x-1-x-1-x-1-x-0-1-1-----x-1-1-1-x-1-x-1-x-1-1---1-------x---|
 g|-2-2-x-0-x-0-x-2-x-0-0-0-----x-0-2-2-x-0-x-0-x-2-2---2-------x---|
 d|-3-3-x-2-x-0-x-2-x-0-2-2-----x-2-3-3-x-2-x-0-x-2-2---2-------x---|
 a|-----------2---0---x-3-3-----x-3-----------2---0-0---0-------x---|
 c|-------------------7---------------------------------------------|
  ( 1   2   3   4 | 1   2   3   4 | 1   2   3   4 | 1   2   3   4   )

 e|-------------------------------------------------|
 b|-----------------5---5---------------------------|
 g|-------2p0-------5---5-----------------2p0-------|
 d|-2p0-2-----0-2-0-2---2-----------2p0-2-----0-2-0-|
 a|-----x-----------x---x---------------------------|
 c|-----------------5---5---------------------------|
  ( 1   2   3   4 | 1   2   3   4 | 1   2   3   4   |

2nd chorus/bridge
 e|---0-------0---0---------0-----0---0-------0---0---------0-----0-|
 b|-1-1-x-1-x-1-x-1-x-0-x-1-1---x-1-1-1-x-1-x-1-x-1-x-0-x-1-1---x-1-|
 g|-2-2-x-0-x-0-x-2-x-0-x-0-0---x-0-2-2-x-0-x-0-x-2-x-0-x-0-0---x-0-|
 d|-3-3-x-2-x-0-x-2-x-0-x-2-2---x-2-3-3-x-2-x-0-x-2-x-0-x-2-2---x-2-|
 a|-----------2---0---x---3-3---x-3-----------2---0---x---3-3---x-3-|
 c|-------------------7-------------------------------7-------------|
  ( 1   2   3   4 | 1   2   3   4 | 1   2   3   4 | 1   2   3   4   )

 e|---0-------0---0---------------0---0-------0---------0-----------|
 b|-1-1-x-1-x-1-x-1-x-0-1-1-----x-1-1-1-x-1-x-1-x-1-1---1-------x---|
 g|-2-2-x-0-x-0-x-2-x-0-0-0-----x-0-2-2-x-0-x-0-x-2-2---2-------x---|
 d|-3-3-x-2-x-0-x-2-x-0-2-2-----x-2-3-3-x-2-x-0-x-2-2---2-------x---|
 a|-----------2---0---x-3-3-----x-3-----------2---0-0---0-------x---|
 c|-------------------7---------------------------------------------|
  ( 1   2   3   4 | 1   2   3   4 | 1   2   3   4 | 1   2   3   4   )

 e|-----------------------------------------------------------------|
 b|-----------------5---5-------x-------------------5---5-------x---|
 g|-------2p0-------5---5-------x---------2p0-------5---5-------x-5-|
 d|-2p0-2-----0-2-0-2---2-------x---2p0-2-----0-2-0-2---2-----5-x---|
 a|-----x-----------x---x-------x-------------------x---x-------x---|
 c|-----------------5---5---------------------------5---5-----------|
  ( 1   2   3   4 | 1   2   3   4 | 1   2   3   4 | 1   2   3   4   )

 e|-----------------0---0-------------------------------------------|
 b|-----x-----------1---1-------x-1-0h1-1-3---1-----5---5---------5-|
 g|-----x-5---5---5-2---2-------x---2---2-------2-0-5---5-----5-----|
 d|---5-x-------5---2---2-------x---2---2-------2---2---2-------2---|
 a|-----x-----------0---0-------x---0---x-------x---x---x-----------|
 c|---------5---x-----------------------------------5---5-------x---|
  ( 1   2   3   4 | 1   2   3   4 | 1   2   3   4 | 1   2   3   4   )

 e|-----------------0-----0-0-----0-0-----0-------------------------|
 b|-------5---------1---x-1-1---x-1-1---x-0-0---x-0-5---5-------x---|
 g|---5-------5---5-0---x-0-0---x-0-2---x-0-0---x-0-5---5-------x-5-|
 d|-----2-------2---2---x-2-0---x-0-2---x-0-0---x-0-2---2-----5-x---|
 a|-----------------3---x---2---x---0---x---x---x---x---x-------x---|
 c|-----x-------x---------------------------5/7-----5---5-----------|
  ( 1   2   3   4 | 1   2   3   4 | 1   2   3   4 | 1   2   3   4   )

 e|-----------------0---0-------------------------------------------|
 b|-----x-----------1---1-------x-1-0h1-1-3---1-----5---5---------5-|
 g|-----x-5---5---5-2---2-------x---2---2-------2-0-5---5-----5-----|
 d|---5-x-------5---2---2-------x---2---2-------2---2---2-------2---|
 a|-----x-----------0---0-------x---0---x-------x---x---x-----------|
 c|---------5---x-----------------------------------5---5-------x---|
  ( 1   2   3   4 | 1   2   3   4 | 1   2   3   4 | 1   2   3   4   )

 e|-----------------0-----0-0-----0-0-----0-------------------------|
 b|-------5---------1---x-1-1---x-1-1---x-0-0---0---5---5-----------|
 g|---5-------5---5-0---x-0-0---x-0-2---x-0-0---0---5---5-----------|
 d|-----2-------2---2---x-2-0---x-0-2---x-0-0---0---2---2-----------|
 a|-----------------3---x---2---x---0---x---x---x---x---x-----------|
 c|-----x-------x---------------------------5/7-7---5---5-----------|
  ( 1   2   3   4 | 1   2   3   4 | 1   2   3   4 | 1   2   3   4   )

 e|-----------------|
 b|-----------------|
 g|-------2p0-------|
 d|-2p0-2-----0-2-0-|
 a|-----------------|
 c|-----------------|
  ( 1   2   3   4   )





Comments


Popular Kristofer Astrom tabs & chords
Conjure Me Chords
Winter Moment Chords
Better With The Night Tabs
I Am Not The Case Tabs
I Collect Knives 1 Tabs
Loupita Tabs
Major Hombre Tabs
The Old Mans Meadow Tabs
Conjure Me Ukulele
Good You Bring Ukulele


Song lyrics



↑ Back to top | Tablatures and chords are parodies/interpretations of the original songs. You may use it for private study, scholarship, research or language learning purposes only
© 2014 AZChords.com Contact us | Privacy policy | DMCA | Add/correct tabs | Request tabs | Top 50 tabs