» » »

The Old Mans Meadow Tabs (ver.1)

Artists:  A B C D E F G H I J K L M N O P Q R S T U V W X Y Z # 

The Old Mans Meadow Tabs (ver.1)

Kristofer Astrom
Rating:
0/5 (0 votes)

Hard to play? Try these video lessons and learn fast.
                Capo på 3:e bandet

Fig 1
|-----------------|-----------------|-----------------|-----------------|
|-0-----0-----0---|---0-----1p0-----|-0-----0-----0---|---0-----1p0-----|
|---------0-------|-----0-------2p0-|---------0-------|-----0-------2p0-|
|-0---0-----0-----|-0-----0---------|-0---0-----0-----|-0-----0---------|
|-----------------|-----------------|-----------------|-----------------|
|-----------------|-----------------|-----------------|-----------------|

Fig 2                               
|-----------------|-----------------|-----------------|-----------------|
|-0-----0-----0---|---0-----1p0-----|-0-----0-----0---|---0-----1p0-----|
|---------0-------|-----0-------2p0-|---------0-------|-----0-------2p0-|
|-2---2-----2-----|-2-----2---------|-2---2-----2-----|-2-----2---------|
|-----------------|-----------------|-----------------|-----------------|
|-----------------|-----------------|-----------------|-----------------|
    
Fig 3                            
|-----------------|-----------------|-------------3---|
|-0-----0-----0---|---0-----0-------|-3-----3---------|
|---------0-------|-----0-----0-----|---------0-------|
|-----------------|-----------------|-----------------|
|-3---3-----3-----|-3-----3-----3---|-3---3-------3---|
|-----------------|-----------------|-----------------|
                                  
                                  
Intro:
Fig 1 + Fig 2 + Fig3

Vers:
Fig 1 + Fig 2
Fig 1 + Fig 2
Fig 1 + Fig 2
Fig 1 + Fig 2 + Fig 3

how come you don't feel
the way you used to
can it be
that I abused you
fallen leaves on balconies
the old man's meadow
where my home is

G Em7 (2x)

G                                             Em7
  how come you don't feel the way you used to
G                      Em7
  what did I do to you
G                             Em7   
  I still can hear how mom calls
G                           Em7      Cadd9
  your photograph on my wall

Am7   D    G

         Em7      D
you will stay
      Em7     D
in my way
         Em7      D
you will stay
      Em7     Cadd9
in my way

in my way
            
Hard to play? Try these video lessons and learn fast. | Correct




comments powered by Disqus
↑ Back to top | Tablatures and chords are parodies/interpretations of the original songs. You may use it for private study, scholarship, research or language learning purposes only