>
 >
Poor Young Mans Heart

Poor Young Mans Heart Guitar Tabs

Kristofer Astrom - Poor Young Mans Heart chords, tabs, tablatures, lyrics

Guitar lessons | Add/correct | Request | Top 50 tabs Artists:  A B C D E F G H I J K L M N O P Q R S T U V W X Y Z 0-9

Poor Young Mans Heart Guitar Tabs – Kristofer Astrom

CD, Sheet music, Poster

Do you like Poor Young Mans Heart? Share with your friends now
Tabs
capo på 3:e bandet

Låten går i 3/4-takt.

Fig 1 (Intro):
|-----0-0-0-|-----0-0-0-|-----0-0-0-|-----0-0-0-|
|-----1-1-1-|-----1-1-1-|-----1-1-1-|-----1-1-1-|
|-----0-0-0-|-----0-0-0-|-----0-0-0-|-----0-0-0-|
|-----2-2-2-|-----2-2-2-|-----2-2-2-|-----2-2-2-|
|-3---------|-3---------|-3---------|-3---------|
|-----------|-----------|-----------|-----------|


  C   C/D C/E   C/G C/A C/B   C   C/D C/E   C
|-------------|-------------|-------------|-----0-0-0-|
|---1---1---1-|---1---1---1-|---1---1---1-|-----1-1-1-|
|---0---0---0-|---0---0---0-|---0---0---0-|-----0-0-0-|
|-----0---2---|-------------|-----0---2---|-----2-2-2-|
|-3-----------|-----0---2---|-3-----------|-3---------|
|-------------|-3-----------|-------------|-----------|


  Fadd9
|----3-3---3-|----3-3-3-|----3-3-3-|----3-3-|
|----1-1---1-|----1-1-1-|----1-1-1-|----1-1-|
|----2-2---2-|----2-2-2-|----2-2-2-|----2-2-|
|-3----------|----------|-3--------|--------|
|------------|----------|----------|--------|
|------------|-1--------|----------|-1------|


  C   C/D C/E   C/G C/A C/B   C   C/D C/E   C
|-------------|-------------|-------------|-----0-0-0-|
|---1---1---1-|---1---1---1-|---1---1---1-|-----1-1-1-|
|---0---0---0-|---0---0---0-|---0---0---0-|-----0-0-0-|
|-----0---2---|-------------|-----0---2---|-----2-2-2-|
|-3-----------|-----0---2---|-3-----------|-3---------|
|-------------|-3-----------|-------------|-----------|



Fig 2 (Vers):
  C          Gsus4      C/E       Fadd9
|------0-0-|----3-3-3-|-----3-3-|-----3-3-3-|
|------1-1-|----1-1-1-|-----1-1-|-----1-1-1-|
|------0-0-|----0-0-0-|-----0-0-|-----2-2-2-|
|------2-2-|----0-0-0-|---------|-3---------|
|-3--------|----2-2-2-|---------|-----------|
|----------|-3--------|-0-------|-----------|


  C           Gsus4     C
                                             
|-----0-0-0-|-----3-3-|---0-----|---0-0-0-|
|-----1-1-1-|-----1-1-|---1-----|---1-1-1-|
|-----0-0-0-|-----0-0-|---0-----|---0-0-0-|
|-----2-2-2-|-----0-0-|-----0h2-|---------|
|-3---------|---------|-3-------|-3-------|
|-----------|-3-------|---------|---------|



Fig 3 (Mellanspel):
  C           C/B        Gsus4      Fadd9
|-----0-0-0-|----0-0-0-|------3-3-|-----3-3-3-|
|-----1-1-1-|----1-1-1-|------1-1-|-----1-1-1-|
|-----0-0-0-|----0-0-0-|------0-0-|-----2-2-2-|
|-----2-2-2-|----2-2-2-|------0-0-|-3---------|
|-3---------|-2--------|----------|-----------|
|-----------|----------|-3--------|-----------|


  C   C/D C/E   C/G C/A C/B   C   C/D C/E   C
|-------------|-------------|-------------|-----0-0-0-|
|---1---1---1-|---1---1---1-|---1---1---1-|-----1-1-1-|
|---0---0---0-|---0---0---0-|---0---0---0-|-----0-0-0-|
|-----0---2---|-------------|-----0---2---|-----2-2-2-|
|-3-----------|-----0---2---|-3-----------|-3---------|
|-------------|-3-----------|-------------|-----------|


  Fadd9
|----3-3-(3)-3-|----3-3-3-|----3-3-3-|---3-3-3-|
|----1-1-(1)-1-|----1-1-1-|----1-1-1-|---1-1-1-|
|----2-2-(2)-2-|----2-2-2-|----2-2-2-|---2-2-2-|
|-3------------|----------|-3--------|---------|
|--------------|----------|----------|---------|
|--------------|-1--------|----------|-1-------|


  C   C/D C/E   C/G C/A C/B   C   C/D C/E   C
|-------------|-------------|-------------|---------|
|---1---1---1-|---1---1---1-|---1---1---1-|-------1-|
|---0---0---0-|---0---0---0-|---0---0---0-|-------0-|
|-----0---2---|-------------|-----0---2---|-----2---|
|-3-----------|-----0---2---|-3-----------|-3-------|
|-------------|-3-----------|-------------|---------|



Fig 4 (Refräng):

    C           C/B        Am          Gsus4
||-----0-0-0-|----0-0-0-|---0-0-0-0-|-----3-3-3----|
||-----1-1-1-|----1-1-1-|---1-1-1-1-|-----1-1-1----|
||-----0-0-0-|----0-0-0-|---2-2-2-2-|-----0-0-0----|
||-----2-2-2-|----2-2-2-|---2-2-2-2-|--------------|
||-3---------|-2--------|-0---------|--------------|
||-----------|----------|-----------|-3------------|

                           <--- första gången ----->
  Fadd9                      C           C/G C/A C/B
|----3-3---3-|-----3-3-3-|-----0-0-0-|---------------||
|----1-1---1-|-----1-1-1-|-----1-1-1-|---1---1---1---||
|----2-2---2-|-----2-2-2-|-----0-0-0-|---0---0---0---|| 2x
|-3----------|-----------|-----2-2-2-|---------------||
|------------|-----------|-3---------|-----0---2-----||
|------------|-1---------|-----------|-3-------------||
 

  <------------------andra gången ------------------>
  C   C/D C/E   C/G C/A C/B   C   C/D C/E   C
|-------------|-------------|-------------|-----0-0-0-|
|---1---1---1-|---1---1---1-|---1---1---1-|-----1-1-1-|
|---0---0---0-|---0---0---0-|---0---0---0-|-----0-0-0-|
|-----0---2---|-------------|-----0---2---|-----2-2-2-|
|-3-----------|-----0---2---|-3-----------|-3---------|
|-------------|-3-----------|-------------|-----------|



Fig 5 (Andra refrängen):

    C           C/B        Am          Gsus4
||-----0-0-0-|----0-0-0-|---0-0-0-0-|-----3-3-3----|
||-----1-1-1-|----1-1-1-|---1-1-1-1-|-----1-1-1----|
||-----0-0-0-|----0-0-0-|---2-2-2-2-|-----0-0-0----|
||-----2-2-2-|----2-2-2-|---2-2-2-2-|--------------|
||-3---------|-2--------|-0---------|--------------|
||-----------|----------|-----------|-3------------|

 <------------------ första gången ----------------->
  Fadd9                      C           C/G C/A C/B
|----3-3---3-|-----3-3-3-|-----0-0-0-|---------------||
|----1-1---1-|-----1-1-1-|-----1-1-1-|---1---1---1---||
|----2-2---2-|-----2-2-2-|-----0-0-0-|---0---0---0---|| 2x
|-3----------|-----------|-----2-2-2-|---------------||
|------------|-----------|-3---------|-----0---2-----||
|------------|-1---------|-----------|-3-------------||
 
 
 <------------------ andra gången ------------>
  Fadd9                                    
|----3-3---3-|-----3-3-3-|------3-3-|-----3-3-3-|
|----1-1---1-|-----1-1-1-|------1-1-|-----1-1-1-|
|----2-2---2-|-----2-2-2-|------2-2-|-----2-2-2-|
|-3----------|-----------|-3--------|-3---------|
|------------|-----------|----------|-----------|
|------------|-1---------|----------|-1---------|
 
          
  C   C/D C/E   C/G C/A C/B   C   C/D C/E   C
|-------------|-------------|-------------|------------|
|---1---1---1-|---1---1---1-|---1---1---1-|------------|
|---0---0---0-|---0---0---0-|---0---0---0-|------------|
|-----0---2---|-------------|-2----0---2--|------------|
|-3-----------|-----0---2---|-------------|-3----------|
|-------------|-3-----------|-------------|------------|


Intro      
Vers (3x)   
Mellanspel
Vers (4x)            
Mellanspel    
Refräng (Fadd9 två gånger (fyra takter) sista gången)
Vers (4x)
Mellanspel  
Refräng



C
C /D /E /G /A /B C /D /E C
Fadd9
C /D /E /G /A /B C /D /E C

C              Gsus4 C/E        Fadd9
  through this dark  night of december
C      Gsus4          C
  snow       comes at me
C        Gsus4 C/E       Fadd9
  I have never seen such beauty        
C            Gsus4   C
  but you're so far away              
C           Gsus4 C/E          Fadd9
  drunk and weary outside your door
C            Gsus4       C 
  but you're so far from here
 C        Gsus4   C/E           Fadd9
you never told me that you were leaving
C               Gsus4             C
  I still don't know where you've been

C C/B Gsus4 Fadd9
C   C/D C/E   C/G C/A C/B   C   C/D C/E   C
Fadd9
C   C/D C/E   C/G C/A C/B   C   C/D C/E   C

C         Gsus4       C/E           Fadd9
  is that really what captured your heart?
C         Gsus4      C 
  is that all he can do?
C          Gsus4            C/E          Fadd9
  he's not more than me not beautiful or smart
C     Gsus4          C
  but still he's got you
C       Gsus4       C/E      Fadd9
  maybe soon I will find me a home
C        Gsus4            C 
  that I could invite you to
C           Gsus4
  if when I ask you
C/E       Fadd9
  you say no
C          Gsus4  C 
  I'll say   yeah, I knew

C C/B Gsus4 Fadd9
C   C/D C/E   C/G C/A C/B   C   C/D C/E   C
Fadd9
C   C/D C/E   C/G C/A C/B   C   C/D C/E   C

C       C/B        Am             Gsus4
  don't break this poor young mans heart
      Fadd9
don't kill it
        C     /G /A /B
give it back
C       C/B        Am             Gsus4 
  don't break this poor young mans heart
      Fadd9
cause if you do
                   C   /D /E /G /A /B C /D /E C
I'll be coming for you

you don't know what my heart can do
never did let me show you
if you're not interested in that part
give my heart in return
I will never feel it again
what your body can do
if you're happy doing what you do
I'd like to say I'm happy to

C C/B Gsus4 Fadd9
C   C/D C/E   C/G C/A C/B   C   C/D C/E   C
Fadd9
C   C/D C/E   C/G C/A C/B   C   C/D C/E   C

don't break this poor young mans heart
don't kill it
give it back
don't break this poor young mans heart
cause if you do
                   C /D /E /G /A /B /E /D /E C
I'll be coming for you





Comments


Popular Kristofer Astrom tabs & chords
Good You Bring Chords
Hangover Dream Chords
Winter Moment Chords
Better With The Night Tabs
How Come Your Arms Are Not Around Me Tabs
I Collect Knives 1 Tabs
Loupita 2 Tabs
Masterdamn Tabs
Yeah Oh Thats Nice Tabs
Good You Bring Ukulele


Song lyrics



↑ Back to top | Tablatures and chords are parodies/interpretations of the original songs. You may use it for private study, scholarship, research or language learning purposes only
© 2014 AZChords.com Contact us | Privacy policy | DMCA | Add/correct tabs | Request tabs | Top 50 tabs