» » »

Kristofer Astrom, Major Hombre Tabs (ver.1)

Artists:  A B C D E F G H I J K L M N O P Q R S T U V W X Y Z # 

Major Hombre Tabs (ver.1)

Kristofer Astrom Tabs
 Rating:
4/5 (4 votes)
Major Hombre lessons Tabs too difficult? Try these video lessons and learn fast
                CAPO FRET 2


Fig 1 (Intro/Vers):

          Em    Em/D  Em/C  Em/B

|-------|---0-0---0-0---0-0---0-0-|
|-------|---0-0---0-0---0-0---0-0-|
|-------|---0-0---0-0---0-0---0-0-|
|-----0-|-2-----0-------x-x---x-x-|
|-0h2---|-------------3-----2-----|
|-------|-------------------------|


  Am                    C
|---0---0-0-0---------|---0---0-0-0---0---0-0-0-|
|---1---1-1-1---1-----|---1---1-1-1---1---1-1-1-|
|---2---2-2-2---2-----|---0---0-0-0---0---0-0-0-|
|---2---2-2-2---2-----|---2---2-2-2---2---2-2-2-|
|-0---0-------0---0-2-|-3---3-------3---3-------|
|---------------------|-------------------------|


  C/B                 Em    Em/D  Em/C  Em/B
|---0---0-0---0-----|---0-0---0-0---0-0---0-0-|
|---1---1-1---1-----|---0-0---0-0---0-0---0-0-|
|---0---0-0---0-----|---0-0---0-0---0-0---0-0-|
|---0---0-0---0---0-|-2-----0-------x-x---x-x-|
|-2---2-----2---2---|-------------3-----2-----|
|-------------------|-------------------------|


  Am                    C
|---0---0-0-0---------|---0---0-0-0---0---0-0-0-|
|---1---1-1-1---1-----|---1---1-1-1---1---1-1-1-|
|---2---2-2-2---2-----|---0---0-0-0---0---0-0-0-|
|---2---2-2-2---2-----|---2---2-2-2---2---2-2-2-|
|-0---0-------0---0-2-|-3---3-------3---3-------|
|---------------------|-------------------------|


  C/B                     Am
|---0---0-0---0---0-0-0-|---0---0-0---0---0-0-|---0---0-0---0-----|
|---1---1-1---1---1-1-1-|---1---1-1---1---1-1-|---1---1-1---1-----|
|---0---0-0---0---0-0-0-|---2---2-2---2---2-2-|---2---2-2---2-----|
|---0---0-0---0---0-0-0-|---2---2-2---2---2-2-|---2---2-2---2---0-|
|-2---2-----2---2-------|-0---0-----0---0-----|-0---0-----0---2---|
|-----------------------|---------------------|-------------------|




Fig 2:

  Am    Am/G  Am/F  Am/E    Dsus2               Am
|---0-0---0-0---0-0---0-0-|---0---0-0---0-----|---0---0-0---0-----|
|---1-1---1-1---1-1---1-1-|---3---3-3---3-----|---1---1-1---1-----|
|-2-----0-----------------|---2---2-2---2-----|---2---2-2---2-----|
|-------------3-----2-----|-0---0-----0-----0-|---2---2-2---2---2-|
|-------------------------|---------------0---|-0---0-----0---0---|
|-------------------------|-------------------|-------------------|


  C                     C/B
|---0---0-0---0---0-0-|---0---0-0---0---0-0-|
|---1---1-1---1---1-1-|---1---1-1---1---1-1-|
|---0---0-0---0---0-0-|---0---0-0---0---0-0-|
|---2---2-2---2---2-2-|---0---0-0---0---0-0-|
|-3---3-----3---3-----|-2---2-----2---2-----|
|---------------------|---------------------|



I called you up because it's true
I followed up but not with you
I wish you more I wish you knew
I hope you feel
that we still love you

I heard you say I'm full of hate
because I always come home late
a conspiracy your family
but look beyond
our economy

why is that so hard to say
I missed you yesterday
I miss you today

it's not your fault you're just confused
I pray to god that you're not being used
whatever's bad we'll stand by you
I hope you feel
that we missed you too
            
Submit corrections

comments powered by Disqus
↑ Back to top | Kristofer Astrom Tabs for Major Hombre. Lyrics for acoustic guitar and electric guitar. Tablatures and chords are parodies/interpretations of the original songs. You may use it for private study, scholarship, research or language learning purposes only