>
 >
Idiot Talk

Idiot Talk Guitar Tabs

Kristofer Astrom - Idiot Talk chords, tabs, tablatures, lyrics

Guitar lessons | Add/correct | Request | Top 50 tabs Artists:  A B C D E F G H I J K L M N O P Q R S T U V W X Y Z 0-9

Idiot Talk Guitar Tabs – Kristofer Astrom

CD, Sheet music, Poster

Do you like Idiot Talk? Share with your friends now
Tabs

capo 3rd fret

intro/verse
e||---------------------------------||
b||---------------------------------||
g||-----------------x-x-----2/4\2p0-||
d||-----------------x-x-------------||
a||-----------------x-x-------------||
e||---------------------------------||
  ( 1   +   2   +   3   +   4   +   )

    em7                             Cadd9                         
e||---------3-------------------------------------------------------|
b||---------3---------------0---------------3---------------0-------|
g||.--------0-----------x-x-2/4\2p0---------0-----------x-x-2/4\2p0-|
d||.2-------------------x-x-----0---2-------2-----------x-x---------|
a||---------------------x-x---------3-------------------x-x---------|
e||-----------------------------------------------------------------|
  ( 1   +   2   +   3   +   4   |   1   +   2   +   3   +   4   +   )

    G                               C
 e|-----------------------------------------------------------------|
 b|-------------------------0-----------------------------0---------|
 g|---------------------x-x-2/4\2p0---------------------0---2/4-2p0-|
 d|---------0-----------x-x-0---0-----------2-------0h2-------------|
 a|---------------------x-x---------3-------------------------------|
 e|-3---------------------------------------------------------------|
  ( 1   +   2   +   3   +   4   |   1   +   2   +   3   +   4   +   )

    em                              C               am
 e|-----------------------------------------------------------------|
 b|---------0-----------0-0-0---------------1-----------1---0h1-----|
 g|---------0-----------0-0-2/4\2p0---------0-----------2-------2-2-|
 d|---------2-----------2-2-----0---2-------2-----0-2-----------2-2-|
 a|-----------------0h2-------------3-----------3-2-0---------------|
 e|-0---------------------------------------------------------------|
  ( 1   +   2   +   3   +   4   |   1   +   2   +   3   +   4   +   )
                                                     _______________
    em              D/F#        G                    1. 2.          | 
 e|------------------------------------------------||---------------||
 b|---------0--------------------------------------||-3-------------||
 g|---------0---------------0---0------------------||-0-x-x-2/4\2p0.||
 d|---------2-----------0-------0------------------||-0-x-x--------.||
 a|---------------------0-------2------------------||---x-x---------||
 e|-0---------------2-----------3------------------||---------------||
  ( 1   +   2   +   3   +   4   |   1   +   2   +   3   +   4   +   )

bridge 
   3.___________________________
   guitar I                     |        
e||-----------------------------------------------------------------|
b||-----------------------------------------------------------------|
g||-----------------------------------------------------------------|
d||-------------5h7-7/9-----9\7-5---5/7-----------------7--/9--/10--|
a||-----------------------------------------------------------------|
e||-----------------------------------------------------------------|
  ( 1   +   2   +   3   +   4   |   1   +   2   +   3   +   4   +   )
  |guitar II
 e|-----------------------------------------------------------------|
 b|-----------------------------------------3-----------------------|
 g|---------x-------x-------x---------------0-----------------------|
 d|---------x-------x-------x---0-----------2-------------------0h2-|
 a|---------x-------x-------x-------0-------------------0---2---3---|
 e|-----------------------------------------------------------------|
  ( 1   +   2   +   3   +   4   |   1   +   2   +   3   +   4   +   )

   guitar I
 e|-----------------------------------------------------------------|
 b|-----------------------------------------------------------------|
 g|-----------------------------------------------------------------|
 d|-------------5h7-7/9-----9\7-5---5/7-----------------7--/9--/10--|
 a|-----------------------------------------------------------------|
 e|-----------------------------------------------------------------|
  ( 1   +   2   +   3   +   4   |   1   +   2   +   3   +   4   +   )
  |guitar II
 e|-----------------------------------------------3-----------------|
 b|-----------------------------------------3-----------------------|
 g|---------0---x---x-------x---------------0-------0---------------|
 d|-------------x---x-------x---------------2-------2---0-------0h2-|
 a|-------------x---x-------x-------0-----------------------2---3---|
 e|-----------------------------------------------------------------|
  ( 1   +   2   +   3   +   4   |   1   +   2   +   3   +   4   +   )

   guitar I
 e|-----------------------------------------------------------------|
 b|-----------------------------------------------------------------|
 g|-------------4/5-5/7-----7\5-4---4/5-----------------5--/7--/-9--|
 d|-------------5/7-7/9-----9\7-5---5/7-----------------7--/9--/10--|
 a|-----------------------------------------------------------------|
 e|-----------------------------------------------------------------|
  ( 1   +   2   +   3   +   4   |   1   +   2   +   3   +   4   +   )
  |guitar II
 e|-----------------------------------------------3-----------------|
 b|-----------------------------------------3-----------------------|
 g|---------x-------x-------x---x-----------0-----------------------|
 d|---------x-------x-------x---x-----------2-----------0---0---0h2-|
 a|---------x-------x-------x---x---0-------------------0---2---3---|
 e|-----------------------------------------------------------------|
  ( 1   +   2   +   3   +   4   |   1   +   2   +   3   +   4   +   )

   guitar I
 e|-----------------------------------------------------------------|
 b|-----------------------------------------------------------------|
 g|-------------4/5-5/7-----7\5-4---4/5-----------------5--/7--/-9--|
 d|-------------5/7-7/9-----9\7-5---5/7-----------------7--/9--/10--|
 a|-----------------------------------------------------------------|
 e|-----------------------------------------------------------------|
  ( 1   +   2   +   3   +   4   |   1   +   2   +   3   +   4   +   )
  |guitar II
 e|-----------------------------------------------------------------||
 b|-----------------------------------------3-----3-----------------||
 g|---------0-------x-------x---x-----------0-----0-----------------||
 d|---------0-------x-------x---x-----------2-----2-2---0---0---0h2-||
 a|-----------------x-------x---x---0-------------------0---2---3---||
 e|-----------------------------------------------------------------||
  ( 1   +   2   +   3   +   4   |   1   +   2   +   3   +   4   +   )

 
last verse:
em7
You took the train
C
To your mom
G
You went away
C
And this time you'll stay
em                            C   am
You know how much you mean to me
        em      D/F#      C  C/B  am
But you really should be free
        em      D/F#      C  C/B  am
Yeah you really should be free
        em      D/F#      C  C/B  am    em
Yeah you really should be free





Comments


Popular Kristofer Astrom tabs & chords
Better With The Night Tabs
I Am Not The Case Tabs
I Collect Knives Tabs
Loupita Tabs
Loupita 2 Tabs
Masterdamn Tabs
Yeah Oh Thats Nice Tabs
Hangover Dream Ukulele
Just Another Lovesong Ukulele
Winter Moment Ukulele


Song lyrics



↑ Back to top | Tablatures and chords are parodies/interpretations of the original songs. You may use it for private study, scholarship, research or language learning purposes only
© 2014 AZChords.com Contact us | Privacy policy | DMCA | Add/correct tabs | Request tabs | Top 50 tabs