» » »

Kristofer Astrom, I Collect Knives Tabs (ver.2)

Artists:  A B C D E F G H I J K L M N O P Q R S T U V W X Y Z # 

I Collect Knives Tabs (ver.2)

Kristofer Astrom Tabs
Rating:
0/5 (0 votes)
I Collect Knives lessons Tabs too difficult? Try these video lessons and learn fast
                
intro/verse
 e|-----------------------------------------------------------------|
 b|-----------------------------------------------------------------|
 g|---------------------------------------------------------------0-|
 d|-----8-------8-8-----0-------0-0---------------------------------|
 a|-6-6-6-6-6-6-6-6-----6-------6-6-----6-------6/8-----6-------6---|
 e|-----------------7-7-7-7-7-7-7-7-8-8-8-8-8-8-8---4-4-4-4-4-4-4---|
  ( 1   2   3   4 | 1   2   3   4 | 1   2   3   4 | 1   2   3   4   )

 e|-----------------------------------------------------------------|
 b|-----------------------------------------------------------------|
 g|-----------------------------------------------------------------|
 d|-------------0-------0-------0-------0-------8-------8-----------|
 a|-----6-------8-------8-------8-------8-8-6-6-6-6-6-6-6-6-----6---|
 e|-4-4-4-4/6-6-6-6-6-6-6-6-6-6-6-6-6-6-6-6-6-6-6-6-6-6-6-6-8-8-8-8-|
  ( 1   2 | 1   2   3   4 | 1   2   3   4 | 1   2   3   4 | 1   2   )

 e|-------------------------|
 b|-------------------------|
 g|-------------------------|
 d|-------------------------|
 a|-----6-------6-------6---|
 e|-8-8-8-8-8-8-8-8-8-8-8-8-|
  ( 3   4 | 1   2   3   4   )

solo
 e|-----------------------------------------------------------------|
 b|-----------------------------------------------------------------|
 g|-----------------------------------------------------------------|
 d|---------6/8-----------------------------------------------------|
 a|-------------8\6---------8/10---\3-------------3/6---------------|
 e|-----------------------------------------------------------------|
  ( 1   2   3   4 | 1   2   3   4 | 1   2   3   4 | 1   2   3   4   )

 e|-----------------------------------------------------------------|
 b|-----------------------------------------------------------------|
 g|-----------------------------------------------------------------|
 d|-----------------------------------5/6-6/8-----------------------|
 a|--------/8-----------------8-8\6-8-------------------------------|
 e|-----------------------------------------------------------------|
  ( 1   2 | 1   2   3   4 | 1   2   3   4 | 1   2   3   4 | 1   2   )

 e|-------------------------|
 b|-------------------------|
 g|-------------------------|
 d|-------------------------|
 a|-------------------------|
 e|-------------------------|
  ( 3   4 | 1   2   3   4   )

01:58
 e|-----------------------------------------------------------------|
 b|-----------------------------------------------------------------|
 g|-------------------------------------------0---0-----------------|
 d|-----8-------8-------8-------8-----------------------------------|
 a|-6-6-6-6-6-6-6-6-6-6-6-6-6-6-6-6-----6-------6-------6-------6---|
 e|---------------------------------8-8-8-8-8---8---8-8-8-8-8-8-8-6-|
  ( 1   2   3   4 | 1   2   3   4 | 1   2   3   4 | 1   2   3   4   )

 e|-----------------------------------------------------------------|
 b|-----------------------------------------------------------------|
 g|-----------------------------------------------------------------|
 d|-----------------------------------------------------------------|
 a|-----8-------8-------8-------8-------6-------6-------6-------6---|
 e|-6-6-6-6-6-6-6-6-6-6-6-6-6-6-6-6-4-4-4-4-4-4-4-4-4-4-4-4-4-4-4-6-|
  ( 1   2   3   4 | 1   2   3   4 | 1   2   3   4 | 1   2   3   4   )

 e|-----------------------------------------------------------------|
 b|-----------------------------------------------------------------|
 g|-----------------------------------------------------------0---0-|
 d|-------------------------------------8-------8-------------------|
 a|-----8-------8-------8-------8---6-6-6-6-6-6-6-6-----6-------6---|
 e|-6-6-6-6-6-6-6-6-6-6-6-6-6-6-6-6-----------------8-8-8-8-8---8---|
  ( 1   2   3   4 | 1   2   3   4 | 1   2   3   4 | 1   2   3   4   )

 e|----------------|
 b|----------------|
 g|-----------0---0|
 d|----------------|
 a|-----6-------6--|
 e|-8-8-8-8-8---8--|
  ( 1   2   3   4  )
            
Submit corrections

comments powered by Disqus
↑ Back to top | Kristofer Astrom Tabs for I Collect Knives. Lyrics for acoustic guitar and electric guitar. Tablatures and chords are parodies/interpretations of the original songs. You may use it for private study, scholarship, research or language learning purposes only