» » »

Kristofer Astrom, Better With The Night Tabs (ver.1)

Artists:  A B C D E F G H I J K L M N O P Q R S T U V W X Y Z # 

Better With The Night Tabs (ver.1)

Kristofer Astrom Tabs
 Rating:
4/5 (4 votes)
Better With The Night lessons Tabs too difficult? Try these video lessons and learn fast
                
capo 3rd fret

e||-----------------------------------------------------------------|
b||-----------1---------1-1-----1-1-----------1---------1-1-----1-1-|
g||.----0-------0-------0-0-----0-0-----0-------0-------0-0-----0-0-|
d||.----2-------2---0h2-2-2-0h2-2-2-----2-------2---0h2-2-2-0h2-2-2-|
a||-3-------------------------------3-------------------------------|
e||-----------------------------------------------------------------|
  ( 1   +   2   +   3   +   4   |   1   +   2   +   3   +   4   +   )

 e|-----------------------------------------------------------------|
 b|-----------1---------1-1-----1-1-----------1---------1-1---------|
 g|-----2-------2-------2-2-----2-2-----2-------2-------2-2---------|
 d|-----2-------2---0h2-2-2-0h2-2-2-----2-------2---0h2-2-2---------|
 a|-0-------------------------------0-----------------------0---2---|
 e|-----------------------------------------------------------------|
  ( 1   +   2   +   3   +   4   |   1   +   2   +   3   +   4   +   )

 e|-----------------------------------------------------------------|
 b|-----------1---------1-1-----1-1-----------1---------1-1-----1-1-|
 g|-----0-------0-------0-0-----0-0-----0-------0-------0-0-----0-0-|
 d|-----2-------2---0h2-2-2-0h2-2-2-----2-------2---0h2-2-2-0h2-2-2-|
 a|-3-------------------------------3-------------------------------|
 e|-----------------------------------------------------------------|
  ( 1   +   2   +   3   +   4   |   1   +   2   +   3   +   4   +   )

 e|-----------------------------------------------------------------|
 b|-----------1---------1-1-----1-1-----------1---------1-1-----1-1-|
 g|-----2-------2-------2-2-----2-2-----2-------2-------2-2-----2-2-|
 d|-----2-------2---0h2-2-2-0h2-2-2-----2-------2---0h2-2-2-0h2-2-2-|
 a|-0-------------------------------0-------------------------------|
 e|-----------------------------------------------------------------|
  ( 1   +   2   +   3   +   4   |   1   +   2   +   3   +   4   +   )
                                                                     
 e|-----------------------------------------------------------------|
 b|-----1-----1-1-------1-1-----1-1-----1-1-----1-1-----1-1-----1-1-|
 g|-----2-----2-2---0h2-2-2-----2-2-----0-0-----0-0-----2-2-----2-2-|
 d|-3---3-------3-----------3-----------2-2-----0-0-----2-2-0h2-2-2-|
 a|---------------------------------3---------------0---------------|
 e|-----------------------------------------3-----------------------|
  ( 1   +   2   +   3   +   4   |   1   +   2   +   3   +   4   +   )
                                                                    
 e|-----------------------------------------------------------------||
 b|-----1-----1-1-------1-1-----1-1-----1-----1-1-------1-1-----1-1-||
 g|-----2-----2-2---0h2-2-2-----2-2-----0-----0-0-------0-0-----0-0.||
 d|-----3-------3-----------------------0--------------------------.||
 a|-------------------------------------------------0h2-----0h2-----||
 e|-1-----------------------1-------3-------------------------------||
  ( 1   +   2   +   3   +   4   |   1   +   2   +   3   +   4   +   )

3. verse: repeat the last 2 lines
 
end
 e|-----------------------------------------------------------------|
 b|-----1-----1-1-------1-1-----1-1-----1-1-----1-1-----1-1-----1-1-|
 g|-----2-----2-2---0h2-2-2-----2-2-----0-0-----0-0-----2-2-----2-2-|
 d|-3---3-------3-----------3-----------2-2-----0-0-----2-2-0h2-2-2-|
 a|---------------------------------3---------------0---------------|
 e|-----------------------------------------3-----------------------|
  ( 1   +   2   +   3   +   4   |   1   +   2   +   3   +   4   +   )

                                    ritardando
 e|-----------------------------------------------------------------|
 b|-----1-----1-1-------1-1-----1-1-----1-----1-1-------------------|
 g|-----2-----2-2---0h2-2-2-----2-2-----0-----0-0-------------------|
 d|-----3-------3-----------------------0---------------0-----------|
 a|-------------------------------------------------0h2---------0h2-|
 e|-1-----------------------1-------3-----------------------3-------|
  ( 1   +   2   +   3   +   4   |   1   +   2   +   3   +   4   +   )

 e|-----------------------------||
 b|-----------------------------||
 g|-0---------------------------||
 d|-0h2-------------------------||
 a|-3---------------------------||
 e|-----------------------------||
  ( 1   +   2   +   3   +   4   )
            
Submit corrections

comments powered by Disqus
↑ Back to top | Kristofer Astrom Tabs for Better With The Night. Lyrics for acoustic guitar and electric guitar. Tablatures and chords are parodies/interpretations of the original songs. You may use it for private study, scholarship, research or language learning purposes only