>
 >
Wake Up

Wake Up Guitar Tabs

Kristian Stanfill - Wake Up chords, tabs, tablatures, lyrics

Guitar lessons | Add/correct | Request | Top 50 tabs Artists:  A B C D E F G H I J K L M N O P Q R S T U V W X Y Z 0-9

Wake Up Guitar Tabs – Kristian Stanfill

CD, Sheet music, Poster

Do you like Wake Up? Share with your friends now
ChordsTabsUkulele
-------------------------------------------------------------------------------
Kristian Stanfill - "Wake Up"
-------------------------------------------------------------------------------
Tuning: standard no capo.

***[ORDER OF SONG]***
INTRO
VERSE
CHORUS
INTRO [JUST GUITAR 1]
VERSE
CHORUS X2
INTRO [JUST DRUMS AND GUITAR 2 FADING]
SOLO
BRIDGE [SOLO PLAYS THROUGHOUT]
CHORUS X2
ENDING FADE


*  *  *  *  *  *  *  *  *  *  *  *  *  *  *  *  *  *  *  *  *  *  *  *  *  *  *  
INTRO INTRO INTRO INTRO INTRO INTRO INTRO INTRO INTRO INTRO INTRO INTRO INTRO 
Guitar 1 (a bit louder)
e|---------------------------------|
B|---------------------------------|
G|---------------------------------|
D|---4/6---------4/6---------------|
A|-------4-6--7------4\2-----------|
E|---------------------------------|
Guitar 2 (background... matched EXACT RHYTHM as Guitar 1)
e|-----0-----------0---------------|
B|---0-----------0-----------------|
G|-------6-8--9------6/4-----------|
D|---------------------------------|
A|---------------------------------|
E|---------------------------------|





*  *  *  *  *  *  *  *  *  *  *  *  *  *  *  *  *  *  *  *  *  *  *  *  *  *  *  
VERSE VERSE VERSE VERSE VERSE VERSE VERSE VERSE VERSE VERSE VERSE VERSE VERSE

EXACT same as INTRO
VERSE 1 AND 2 ARE THE SAME



*  *  *  *  *  *  *  *  *  *  *  *  *  *  *  *  *  *  *  *  *  *  *  *  *  *  *  
CHORUS CHORUS CHORUS CHORUS CHORUS CHORUS CHORUS CHORUS CHORUS CHORUS CHORUS

Guitar 1 (single strum let ring out... VERY SOFT FEEL)
e|---7----0----0----12---------|
B|---0----9----7----0----------|
G|---9----9----9----9----------|
D|---9----9----9----9----------|
A|---x----x----x----x----------|
E|---x----x----x----x----------|repeat throughout

Guitar 2 (very fast, quiet picking)
e|-----7---------------------------|
B|-------0-------10-9-7-9----------|
G|--9------9--9--------------------|
D|-9-9----9--9-9-------------------|
A|---------------------------------|
E|---------------------------------|repeat throughout


*  *  *  *  *  *  *  *  *  *  *  *  *  *  *  *  *  *  *  *  *  *  *  *  *  *  *  
BRIDGE+SOLO BRIDGE+SOLO BRIDGE+SOLO BRIDGE+SOLO BRIDGE+SOLO BRIDGE+SOLO BRIDGE+SOLO 
Guitar 1 (LOUD and POWERFUL!!!)  
e|-0-00-00-00-00-00-00-00-0-00-00-00-00-00-0-0--0--0--0-0-0-0--0--0-0--0-----|
B|-5/12-12-12-12-12-12-12-5/10-10-10-10-10-9-7--5--5--5-7-9-7--7--4-5--7-----|
G|---------------------------------------------------------------------------|
D|---------------------------------------------------------------------------|
A|---------------------------------------------------------------------------|
E|---------------------------------------------------------------------------|
REPEAT THROUGHOUT

Guitar 2 (LOUD SINGLE STRUM CHORDS)
E   A    C#m   B
E   A    C#m   B


*  *  *  *  *  *  *  *  *  *  *  *  *  *  *  *  *  *  *  *  *  *  *  *  *  *  *  
LAST CHORUSES:

Guitar 1 repeats CHORUS SINGLE STRUMS BUT REALLY LOUD

Guitar 2 repeats CHORUS PICKING LOUDER THAN BEFORE


*  *  *  *  *  *  *  *  *  *  *  *  *  *  *  *  *  *  *  *  *  *  *  *  *  *  * 
ENDING ENDING ENDING ENDING ENDING ENDING ENDING ENDING ENDING ENDING ENDING ENDING 

JUST GUITAR 2 PLAYING GUITAR 2'S INTRO TWICE.

DONE.





| /  slide up
| \  slide down
| h  hammer-on
| p  pull-off
| ~  vibrato
| +  harmonic
| x  Mute note
===============================================================================





Comments


Popular Kristian Stanfill tabs & chords
Day After Day 4 Chords
Forever Reign Chords
From The Inside Out Chords
Its A New Day Let It Shine Chords
Lord Almighty Chords
Lord Of All 1 Chords
Alive And Running Ukulele
Lord Of All Ukulele
My Reward Ukulele
You Bring Our Hearts To Life Ukulele


Song lyrics



↑ Back to top | Tablatures and chords are parodies/interpretations of the original songs. You may use it for private study, scholarship, research or language learning purposes only
© 2014 AZChords.com Contact us | Privacy policy | DMCA | Add/correct tabs | Request tabs | Top 50 tabs