» » »

The Stand Tabs

Artists:  A B C D E F G H I J K L M N O P Q R S T U V W X Y Z # 

The Stand Tabs

(ver. 1)
Kristian Stanfill Tabs
 Rating:
4/5 (4 votes)
    The Stand lessons Tabs too difficult? Try these video lessons and learn fast
                Kristian Stanfill


Capo 4 (Hillsong plays it capo 2)

Intro:
G

Verse 1:
G                          C
You stood before creation, eternity in Your hand
G/B                     Em                   C
You spoke the earth into motion, My soul now to stand

Verse 2:
You stood before my failure and carried the cross for my shame
My sin weighed upon Your shoulders, My soul now to stand


Chorus 1:
                 C     Am                    Em
So what can I say         And what could I do
                    C       D           Em
But offer this heart O God      Completely to You 
        

Verse 3:
So I'll walk upon salvation, Your Spirit alive in me
This life to declare Your promise, My soul now to stand


Chorus x2, then end with :
               C  G  D  Em
Completely to You 


Outro:
C         G         D             Em              C
So I'll stand  With arms high and heart abandoned
   G          D       Em        C
In awe of the One who gave it all
       G        D           Em
I'll stand  My soul Lord to You surrendered
C       G        D  
All I am is Yours


Chorus (relative to capo)
Loosely pick around these patterns
e|---------------------------------------------------------------------|
B|--5---7---8---10-----------------------------------------------------|
G|--0---0---0---0------------------------------------------------------|
D|--5---7---9---9------------------------------------------------------|
A|---------------------------------------------------------------------|
E|---------------------------------------------------------------------|


Outro (relative to capo)
e|---------------------------------------------------------------------|
B|--13----13----12----12----10----10----13----12-----------------------|
G|-----12----12----12----12----12----12----12----12--------------------|
D|---------------------------------------------------------------------|
A|---------------------------------------------------------------------|
E|---------------------------------------------------------------------|




If you have any input or corrections, check out my blog for more info and 
let me know if you have any songs you need help with. God bless!
            
Submit corrections

↑ Back to top | Kristian Stanfill Tabs for The Stand. Lyrics for acoustic guitar and electric guitar. Tablatures and chords are parodies/interpretations of the original songs. You may use it for private study, scholarship, research or language learning purposes only