>
 >
Kingdom

Kingdom Guitar Tabs

Kristian Stanfill - Kingdom chords, tabs, tablatures, lyrics

Guitar lessons | Add/correct | Request | Top 50 tabs Artists:  A B C D E F G H I J K L M N O P Q R S T U V W X Y Z 0-9

Kingdom Guitar Tabs – Kristian Stanfill

CD, Sheet music, Poster

Do you like Kingdom? Share with your friends now
Bass TabsChordsTabsUkulele
"KINGDOM" by Kristian Stanfill
Tuning: standard

GUITARS IN TWO PARTS.  
GUITAR ONE IS MORE RHYTHM. GUITAR TWO IS MORE LEAD. SCROLL DOWN TO SEE GUITAR 2.

GUITAR ONE:

INTRO picked or strummed (to strum, see verse version next)
e|-----------------------------------------------------------------------|
B|-----------------------------------------------------------------------|
G|-----------------------------------------------------------------------|
D|---5-5---5-5---5-5---5-5--3..---repeat---------------------------------|
A|-----------------------------------------------------------------------|
E|-3-----3-----3-----3---------------------------------------------------|

VERSE
e|-----------------------------------------------------------------------|
B|-----------------------------------------------------------------------|
G|-----------------------------------------------------------------------|
D|-5-5-5-5-5-5-5-5-5-5-5-5-5-5-5-5-3-3-----------------------------------|
A|-----------------------------------------------------------------------|
E|-3-3-3-3-3-3-3-3-3-3-3-3-3-3-3-3-3-3---repeat, then last one play pre chorus version

PRECHORUS  try bar chording G for this          HITS   Bb     C 
e|--------------------------------------------------------------------|
B|--------------------------------3~~ --------------------------------|
G|-----------------------------3~~ ---------------------3-3---5-5-3---|
D|---5-5---5-5---5-5---5-5--5~~ ------------------------3-3---5-5-5---|
A|------------------------------------------------------1-1---3-3-3---|
E|-3-----3-----3-----3-------------------  repeat then ---------------|

CHORUS  POWER CHORDS
    Bb  Eb     G   F  (x2)        Bb  C   G   F    Bb  F   G 
e|------------------------------------------------------------------------|
B|------------------------------------------------------------------------|
G|--3---8------12--10------------------------------3---10--12-------------|
D|--3---8------12--10-------------8---10--5---3----3---10--12-------------|
A|--1---6------10--8--------------8---10--5---3----1---8---10-------------|
E|--------------------------------6---8---3---1---------------------------|

REPEAT INTRO

REPEAT VERSE again

REPEAT PRECHORUS AGAIN

REPEAT CHORUS

BRIDGE quiet part              loud part (after two screams)strum repeatedly
e|---------------------------------------------------------------------------|
B|---------------------------------------------------------------------------|
G|-----------------------------12-13-14-13-----------------------------------|
D|--3-5-5--3-5-5~ repeat-----------------------------------------------------|
A|-----------------------------10-11-12-11-----------------------------------|
E|---------------------------------------------------------------------------|

REPEAT CHORUS 1 1/2 times

ENDING PARTS                     strum chords
  BUILD                          WHOAS   G   Bb  C   HITS  Bb  C
e|-------------------------------------------------------------------------|
B|-------------------------------------------------------------------------|
G|-------------------------------------------3---5---------3---5-----------|
D|-3-5-5-3-5-5-3-5~ (x4)-----------------5---3---5---------3---5-----------|
A|---------------------------------------5---1---3---------1---3-----------|
E|---------------------------------------3---------------------------------|



*   *   *   *   *   *   *   *   *   *   *   *   *   *   *   *   
*   *   *   *   *   *   *   *   *   *   *   *   *   *   *   *   
*   *   *   *   *   *   *   *   *   *   *   *   *   *   *   *   




GUITAR TWO:

INTRO come in later after two snare hits... strum loud
e|-----------------------------------------------------------------------|
B|---------------------------------------15-15-15-16-16-16-15-16-15~~ ---|
G|--15--14--12--10-10--------15---10-15----------------------------------|
D|--------------------(x3)-----------------------------------------------|
A|--13--12--10--10-8---------13---12-13----------------------------------|
E|-----------------------------------------------------------------------|

VERSE silent, still ringing out last 15~~ 

PRECHORUS ("to live love and give love.."):  light strum
e|------------------------------------HITS-----------------------|
B|---------------------------------------------------------------|
G|---12--15--12--15--12--15--15...--------12-12---14-14-14-------|
D|---------------------------------------------------------------|
A|---10--13--10--13--10--13--10-----------10-10---12-12-12-------|
E|---------------------------------------------------------------|

CHORUS 
e|-----------------------------------------------------------------|
B|--------------6-6---------------------------6-6------------------|
G|--7-7-5-5-7-7----7-7-5-5--------7-7-5-5-7-7-----7-7-8-8-7-7~ ----|
D|-------------------------8-8~ -----------------------------------|
A|-----------------------------------------------------------------|(x2)
E|-----------------------------------------------------------------|

e|-----------------------------------------------------------------|
B|--------------6-6---------------------------4-4-4-4-6-6-6-6~ ----|
G|--7-7-5-5-7-7----7-7-5-5--------7-7-5-5-7-7----------------------|
D|-------------------------8-8~ -----------------------------------|
A|-----------------------------------------------------------------|
E|-----------------------------------------------------------------|

e|-----------------------------------------------------------------|
B|--------------6-6---------------------------6-6------------------|
G|--7-7-5-5-7-7----7-7-5-5--------7-7-5-5-7-7-----7-7-8-8-7-7~ ----|
D|-------------------------8-8~ -----------------------------------|
A|-----------------------------------------------------------------|
E|-----------------------------------------------------------------|

VERSE 2
e|----------------------------------------------------------|
B|---8------------------------------------------------------|
G|-----10~ ------7~ ----------------------------------------|
D|-8---------8h10--7/8--repeat for whole verse--------------|
A|----------------------------------------------------------|
E|----------------------------------------------------------|

REPEAT PRECHORUS

REPEAT CHORUS

BRIDGE quiet part
e|-----------------------|
B|--------------3~~------|
G|--000000-3-5~~ --------|
D|-----------------------|
A|-----------------------|
E|-----------------------|
BRIDGE loud part (after two screams)strum repeatedly FAST
e|---------------------------------------------------|
B|---------------------------------------------------|
G|-----12-13-14-13-----------------------------------|
D|---------------------------------------------------|
A|-----10-11-12-11-----------------------------------|
E|---------------------------------------------------|

REPEAT CHORUS 1 1/2 times

ENDING PARTS                    
BUILD
e|----------------------------------------------------------------------------10-10-10-|
B|----------------------------------------------------------------------11(x3)---------|
G|-12~~~ -10-12~~ --12(x3)10(x3)12-10-8(x3)-7(x3)-5//12(x3)-10(x3)12-10----------------|
D|-------------------------------------------------------------------------------------|
A|-10~~~ -8--10~~ ---------------------------------------------------------------------|
E|-------------------------------------------------------------------------------------|
                                                                       slide to end whoas
WHOAS    *FAST up and down picking
e|-//15*-13*-15-10~ --6~ -8~ -//15*-13*-15-10~ --6~ -8~ --//15~~~ ring out---|
B|---------------------------------------------------------------------------|
G|---------------------------------------------------------------------------|
D|---------------------------------------------------------------------------|
A|---------------------------------------------------------------------------|
E|---------------------------------------------------------------------------|


| /  slide up
| \  slide down
| h  hammer-on
| p  pull-off
| ~  vibrato
| +  harmonic
| x  Mute note
===============================================================================





Comments


Popular Kristian Stanfill tabs & chords
Always 1 Chords
Always 3 Chords
Come To The Water 1 Chords
Forever Reign Chords
Spring Of Life Chords
Always Tabs
Alive And Running Ukulele
One Thing Remains Ukulele
Spring Of Life Ukulele
The Stand Ukulele


Song lyrics



↑ Back to top | Tablatures and chords are parodies/interpretations of the original songs. You may use it for private study, scholarship, research or language learning purposes only
© 2014 AZChords.com Contact us | Privacy policy | DMCA | Add/correct tabs | Request tabs | Top 50 tabs