>
 >
Sms

Sms Guitar Tabs

Kristal - Sms chords, tabs, tablatures, lyrics

Guitar lessons | Add/correct | Request | Top 50 tabs Artists:  A B C D E F G H I J K L M N O P Q R S T U V W X Y Z 0-9

Sms Guitar Tabs – Kristal

CD, Sheet music, Poster

Do you like Sms? Share with your friends now
Tabs
Tuning: standard

Dlm album, lagu ni mggunakan tuning drop d(eBGDAD) tp di sini sy mggunakan standard 
sy yakin tab ini 80% betul...

riff 1
||-----------------------------------------------------------------------------------------||
||-----------------------------------------------------------------------------------------||
||--7--------------------4--------------------------------------------7--------------------||
||--7--7-7-7---------7-7-4--4-4-4---------4-4-5------------------2-2--7--7-7-7-7---7-7-----||
||--5--5-5-5-7-7-7-7-7-7-2--2-2-2-4-4-4-4-4-4-5--5-5-5-2-2-2-2-2-2-2--5--5-5-5-7---7-7-----||
||-----------5-5-5-5-5-5----------2-2-2-2-2-2-3--3-3-3-0-0-0-0-0-0-0-----------5-5-5-5-----||
     x x x x x x x        x x x x x x x        x x x x x x x x         x x x   x

riff 2
||------------------------|---------------------|--------------------|-------------------||
||--------------8---------|-----------7---------|---------8-7--------|-------------------||
||-11---11-9-11---9-7-6---|-7---7-6-7---6-4-----|-4---4-7-----9-7-7~-|--4-6-7-6-11-9-9---||
||----7-----------------7-|---9-------------7-4-|---5----------------|-------------------||
||------------------------|---------------------|--------------------|-------------------||
||------------------------|---------------------|--------------------|-------------------||
 D               A         Bm              F#m  G              Em      D          A

riff 3
||-14--15-17-17--15-14-----14-15-15\14h15~---------14-14-----------------------|
||---------------------17-------------------15--17--------17-15-14--15-17-17~--|
||-----------------------------------------------------------------------------|
||-----------------------------------------------------------------------------|
||-----------------------------------------------------------------------------|
||-----------------------------------------------------------------------------|
   D          A         Em           G       Bm        D          A

-14--15-17-17--15-14-----14-15-15\14h15~---------14-14-----------------------||
---------------------17-------------------15--17--------17-15-15-15~---------||
-----------------------------------------------------------------------------||
-----------------------------------------------------------------------------||
-----------------------------------------------------------------------------||
-----------------------------------------------------------------------------||
D          A         Em           G       Bm        D          A

verse riff
||---------------------------------------------------------------------||
||---------------------------------------------------------------------||
||--7-7-7-7--------------------------4-4-4-4-7-7-7-7-------------------||
||--7-7-7-7-7-7-7-7-2-2-2-2-5-5-5-5--4-4-4-4-7-7-7-7-7-7-7-7-7-7-7-7---||
||--5-5-5-5-7-7-7-7-2-2-2-2-5-5-5-5--2-2-2-2-5-5-5-5-7-7-7-7-7-7-7-7---||
||----------5-5-5-5-0-0-0-0-3-3-3-3------------------5-5-5-5-5-5-5-5---||
*sori, timing utk strum pattern dgr sendiri kt lagu tu..


riff 4
||----------------7-----7~|-------------7-|------------7----|
||------------------8-----|----8---10-----|---8---10--------|
||--///////////-------7---|--7---7----7---|-7---7----7------|
||------------------------|---------------|-----------------|
||------------------------|---------------|-----------------|
||------------------------|---------------|-----------------|
                 G           x   x    x     x   x    x

-----9------9~|-------------9-|-------------9--|
-------10-----|---10---12-----|---10---12------|
----------9---|-9----9----9---|-9----9----9----|
--------------|---------------|----------------|
--------------|---------------|----------------|
--------------|---------------|----------------|
    A           x    x    x     x    x    x

-------------10-9-10-12--13-12-10-9-10~\\\----||
-----8-10-11----------------------------------||
----------------------------------------------||
----------------------------------------------||
----------------------------------------------||
----------------------------------------------||
    Gm     Am        Dm
*Jgn heran, sememangnya minor...bukannya salah type k..

chorus riff
||-------------------------------------------|-----------------|
||-------------------------------------------|-----------------|
||--7-7-7-7-----------------7----------------|-7-7-7-7---------|
||--7-7-7-7-5-5-5-5-8-8-7-7-7----------------|-7-7-7-7-5-5-5-5-|
||--5-5-5-5-5-5-5-5-8-8-7-7-5-5-7-8-10-8-7-5-|-5-5-5-5-5-5-5-5-|
||----------3-3-3-3-6-6-5-5------------------|---------3-3-3-3-|
                              x x x x  x x x

|-----------------|--------------------------------------------------||
|-----------------|--------------------------------------------------||
|-7-7-7-7---------|-7-7-7-7-----------------7------------------------||
|-7-7-7-7-5-5-5-5-|-7-7-7-7-5-5-5-5-8-8-7-7-7------------------------||
|-5-5-5-5-5-5-5-5-|-5-5-5-5-5-5-5-5-8-8-7-7-5-5-7-8-10-8-7-5---------||
|---------3-3-3-3-|---------3-3-3-3-6-6-5-5--------------------------||
                                            ||
                                part ni sbnr nya lbh senang di main dlm drop d..

susunan:

riff 1
riff 1 + riff 2 x2
riff 3
verse riff
riff 3
verse riff
riff 4
chorus riff
riff 3
verse riff
riff 4
chorus riff
riff 1
riff 1 + riff 2 x4

TQ......................please vote 5 star!!!!





Comments


Popular Kristal tabs & chords
Nurani Chords
Resam Pak Belalang Chords
Suatu Kenangan Chords
Zunika Chords
Zakiah Intro Tabs
Delaila Ukulele
Memburu Impian Ukulele
Memburu Impian 2 Ukulele
Nurani Ukulele
Suatu Kenangan Ukulele


Song lyrics



↑ Back to top | Tablatures and chords are parodies/interpretations of the original songs. You may use it for private study, scholarship, research or language learning purposes only
© 2014 AZChords.com Contact us | Privacy policy | DMCA | Add/correct tabs | Request tabs | Top 50 tabs