» » »

Resam Pak Belalang Tabs (ver.1)

Artists:  A B C D E F G H I J K L M N O P Q R S T U V W X Y Z # 

Resam Pak Belalang Tabs (ver.1)

Kristal
Rating:
0/5 (0 votes)

Hard to play? Try these video lessons and learn fast.
                Tuning: Standard

intro
---------------------------------------------------------|
---------------------------------------------------------|
-(2_-----------------------------------------------------|
-(2)----------------------------------------7-2-7--------|
--0--4-7--------0--4-7--------5--4-7--------7-2-7--------|
---------0--4-7--------0--4-7--------0--4-7-5-0-5--------|


------------------------------------------------------------------|
------------------------------------------------------------------|
------------------9-9-9-9-9-9-119-7-7-7-7-7-7-7-------------------|
--7-7-7-7-7-7-7-7-9-9-9-9-9-9-119-7-7-7-7-7-7-7-7-7-7-7-7-7-7-7---|
--7-7-7-7-7-7-7-7-7-7-7-7-7-7-9-7-5-5-5-5-5-5-5-7-7-7-7-7-7-7-7---|
--5-5-5-5-5-5-5-5-------------------------------5-5-5-5-5-5-5-5---|

------------------------------------------------------------------|
------------------------------------------------------------------|
--7-7-7-7-7-7-7-7-----------------7-7-7-7-7-7-7-9-9-9-9-9-9-9-9---|
--7-7-7-7-7-7-7-7-7-7-7-7-7-7-7-7-7-7-7-7-7-7-7-9-9-9-9-9-9-9-9---|
--5-5-5-5-5-5-5-5-7-7-7-7-7-7-7-7-5-5-5-5-5-5-5-7-7-7-7-7-7-7-7---|
------------------5-5-5-5-5-5-5-5---------------------------------|

prechorus (let ring)
--------------------------------------------------------------|
--------------------------------------------------------------|
--7---------------7-----------------------------9-----11-9----|
--7-------7-------7-------7------9--------------9-----11-9----|
--5-------7-------5-------7------9--------------7------9-7----|
----------5---------------5------7----------------------------|

---------------------------------------------------------|
---------------------------------------------------------|
--7---------------7-----------------------------7--------|
--7-------7-------7-------7------4------5-------7--------|
--5-------7-------5-------7------4------5-------5--------|
----------5---------------5------2------3----------------|

chorus
-------------------------------------------------------------|
-------------------------------------------------------------|
------------------------------7-7-7-7-7-7-7-7-9-9-9-9-9-9-9--|
------------------------------7-7-7-7-7-7-7-7-9-9-9-9-9-9-9--|
-0--4-7---------0--4-7--------5-5-5-5-5-5-5-5-7-7-7-7-7-7-7--|
--------0--4-7---------0--4-7--------------------------------|

solo...

**COMING SOON*** ^_^
---------------------------------------------------------|
---------------------------------------------------------|
---------------------------------------------------------|
---------------------------------------------------------|
---------------------------------------------------------|
---------------------------------------------------------|
            
Hard to play? Try these video lessons and learn fast. | Correct




comments powered by Disqus
↑ Back to top | Tablatures and chords are parodies/interpretations of the original songs. You may use it for private study, scholarship, research or language learning purposes only