» » »

Kris Lawrence, Careless Whisper Tabs (ver.1)

Artists:  A B C D E F G H I J K L M N O P Q R S T U V W X Y Z # 

Careless Whisper Tabs (ver.1)

Kris Lawrence Tabs
Rating:
5/5 (1 vote)
Careless Whisper lessons Tabs too difficult? Try these video lessons and learn fast
                Tuning: Standard 

*pls rate thanks. 
 

 
 

Intro:Dm7 Gm7 Bb-BbM7 Am7 
e||--11-10----12-10----7-6--8-6---6-5--------------------------|
B||-------10-------10-----6----6~----6-----------------8-10----|
G||---------10-------10----7----------7----------7-9-10--------|
D||------------------------------------8~--7-8-10--------------|
A||------------------------------------------------------------|
E||------------------------------------------------------------|

e||--11-10----12-10----7-6--8-6---6-5--------------------------|
B||-------10-------10-----6----6~----6-----------------8-10----|
G||---------10-------10----7----------7----------7-9-10--------|
D||------------------------------------8~--7-8-10----------12~-|
A||------------------------------------------------------------|
E||------------------------------------------------------------|

 
Verse I:
Dm7	  Gm7
I feel so unsure
Bb		BbM7		   Am7
As I take your hand and lead you to the dance floor
Dm
As the music dies
Gm7
Something in your eyes 
Bb		BbM7
Calls to mind a silver screen
Am7
And all its sad goodbyes


Chorus:
Dm
I'm never gonna dance again,
Gm7
Guilty feet have got no rhythm
Bb		  BbM7
Though it's easy to pretend,
Am7
I know you're not a fool


Dm
I Should have known better than to cheat a friend
Gm7	
Wasted chance that I've been given
Bb		    BbM7
So I'm never gonna dance again
Am7
The way I danced with you.. 


Repeat Intro:


Verse II:
Dm		Gm7
Time can never mend
Bb	BbM7		  Am7
The careless whispers of a good friend
Dm
To the heart and mind
Gm7
Ignorance is kind
Bb		    BbM7
There’s no comfort in the truth
Am7
Pain is all you'll find


Chorus:
Dm
I'm never gonna dance again,
Gm7
Guilty feet have got no rhythm
Bb		  BbM7
Though it's easy to pretend,
Am7
I know you're not a fool

Dm
I should have known better than to cheat a friend
Gm7
And wasted chance that I've been given
Bb		    BbM7	
So I'm never gonna dance again
Am7
The way I danced with you.. 


Repeat Intro:


Bridge:
Dm
Tonight the music seems so loud
Gm7
I wish that we could lose this crowd
Bb    BbM7	
Maybe it's better this way
Am7
We'd hurt each other with the things we dont to say

Dm
We could have been so good together
Gm7
We could have lived this dance forever
Bb    BbM7                 Am7
But now who's gonna dance with me?

Please stay


 Dm Gm7 Bb-BbM7
(Now that you're gone)
 Now that you're gone
 I feel so alone
(Now that you're gone)
 So what I did so wrong, so wrong
 That you have to leave me alone



-end-

Pls. Rate thanks
            
Submit corrections

comments powered by Disqus
↑ Back to top | Kris Lawrence Tabs for Careless Whisper. Lyrics for acoustic guitar and electric guitar. Tablatures and chords are parodies/interpretations of the original songs. You may use it for private study, scholarship, research or language learning purposes only