» » »

Wolfen Tyranny Tabs (ver.1)

Artists:  A B C D E F G H I J K L M N O P Q R S T U V W X Y Z # 

Wolfen Tyranny Tabs (ver.1)

Krisiun
Rating:
0/5 (0 votes)

Hard to play? Try these video lessons and learn fast.
                Band: Krisiun 


Code: 
. - palm mute           / - slide up to 
\ - slide down to       x – Staccato 
h - hammer on           p - pull off 
, - slight palm mute    () - ghost note, sustained note 
" - tremolo note        <> - Trill 
L – left channel only   R – right channel only 
* - see comment 

Suffixes for bend 
f - full bend       h - half bend 
q - quarter bend    t - tap bend 
^ - Hold bend       r - release bend 
~ - vibrato bend 

Suffixes for harmonic 
ph - pinched harmonic   n – natural/artificial harmonic 

Tuning B E A D F# B 

Riff 1a (0:00) play twice 
|-------------------------------------------------------------| 
|-------------------------------------------------------------| 
|-------------------------------------------------------------| 
|-------------------------------------------------------------| 
|-------7--------7---8---7--------7--------8---7---6---5---7--| 
|-0-0-0----0-0-0---0---0----0-0-0----0-0-0---0---0---0---0----| 
  . . .    . . .   .   .    . . .    . . .   .   .   .   . 

Riff 1b (0:09) play twice 
|-------------------------------------------------------------| 
|-------------------------------------------------------------| 
|-------------------------------------------------------------| 
|-------5--------5---6---5--------5--------6---5---4---3---5--| 
|-------------------------------------------------------------| 
|-0-0-0----0-0-0---0---0----0-0-0----0-0-0---0---0---0---0----| 
  . . .    . . .   .   .    . . .    . . .   .   .   .   . 

Riff 1a x 1 (0:18) 

Fill 1 (0:27) 
|---------------------------------| 
|---------------------------------| 
|---------------------------------| 
|---6---5---4---3-0-6-0-5-0-4-0-3-| 
|---------------------------------| 
|-0---0---0---0-------------------| 
  .   .   .   .   .   .   .   . 

Riff 2 (0:30) 
|-------------------------------------------------------------| 
|-------------------------------------------------------------| 
|-------------------------------------------------------------| 
|-------------------------------------------------------------| 
|-7"-8"-5"-6"-7"-8"-5"-6"-7"-8"-5"-6"-7"-8"-5"-6"-2-----------| 
|-------------------------------------------------0-----------| 

Riff 3 (0:34) play 6 times 
|-------------------------------| 
|-------------------------------| 
|-------------------------------| 
|-------------------------------| Wah FX 
|-7"--8"p7"--11"p7"--8"p7"--6"--| 
|-------------------------------| 

Riff 4 (0:57) 
                                    [x3] 
|---------------------------------------|------------------------------------ 
|---------------------------------------|------------------------------------ 
|---------------------------------------|------------------------------------ 
|---------------------------------------|---------------------10p6-10p6-11p7- 
|---------------------------------------|------------------------------------ 
|-8p7-8p7-11p8-11p8-12p8-12p8-11p8-11p8-|-12p8-12p8-11p8-11p8---------------- 

-----------| 
-----------| 
------13~--| 
-11p7------| 
-----------| 
-----------| 

Riff 3 x 2/3 (1:06) 
Riff 4 x 1 (1:21) 
Riff 1a x 1 (1:30) 
Riff 1b x 1 (1:39) 
Riff 1a x 1 (1:48) 
Fill 1 x 1 (1:57) 

Riff 5 (2:00) 
|--------------------------------------------------| 
|--------------------------------------------------| 
|--------------------------------------------------| 
|--------------------------------------------------| gtr 1 
|-7"-8"-5"-6"-7"-8"-5"-6"-7"-8"-5"-6"-7"-8"-5"-6"--| 
|--------------------------------------------------| 

|--------------------------------------------------| 
|--------------------------------------------------| 
|--------------------------------------------------| 
|-5"-6"-3"-4"-5"-6"-3"-4"-5"-6"-3"-4"-5"-6"-3"-4"--| gtr 2 
|--------------------------------------------------| 
|--------------------------------------------------| 

Riff 6a (2:04) play 4 times 
|---------------------------------------------------------------------------- 
|---------------------------------------------------------------------------- 
|---------------------------------------------------------------------------- 
|-12p0-12p0-12p0-13p0-12p0-12p0-12p0-15p0-12p0-12p0-12p0-13p0-12p0-12p0-11p0- 
|---------------------------------------------------------------------------- 
|---------------------------------------------------------------------------- 

------| 
------| 
------| 
-11p0-| 
------| 
------| 

Riff 6b (2:20) play twice 
|---------------------------------------------------------------------------- 
|---------------------------------------------------------------------------- 
|-12p0-12p0-12p0-13p0-12p0-12p0-12p0-15p0-12p0-12p0-12p0-13p0-12p0-12p0-11p0- 
|---------------------------------------------------------------------------- 
|---------------------------------------------------------------------------- 
|---------------------------------------------------------------------------- 

------| 
------| 
-11p0-| 
------| 
------| 
------| 


Riff 7a (2:28) play twice 
|---------------------------------------| 
|---------------------------------------| 
|---------------------------------------| 
|---------------------------------------| 
|---------------------------------------| 
|-8p7-8p7-11p8-11p8-12p8-12p8-11p8-11p8-| 


Riff 7b (2:32) play twice 
|---------------------------------------| 
|---------------------------------------| 
|---------------------------------------| 
|---------------------------------------| 
|-8p7-8p7-11p8-11p8-12p8-12p8-11p8-11p8-| 
|---------------------------------------| 


Riff 7c (2:36) play twice 
|------------------------------------| 
|------------------------------------| 
|------------------------------------| 
|-6p5-6p5-9p6-9p6-10p6-10p6-9p6-9p6--| 
|------------------------------------| 
|------------------------------------| 

Riff 7d (2:40) play twice 
|---------------------------------------| 
|---------------------------------------| 
|---------------------------------------| 
|-9p8-9p8-12p9-12p9-13p9-13p9-12p9-12p9-| 
|---------------------------------------| 
|---------------------------------------| 

Riff 7e (2:44) play twice 
|-1p0-1p0-3p0-3p0-4p0-4p0-3p0-3p0--| 
|----------------------------------| 
|----------------------------------| 
|----------------------------------| 
|----------------------------------| 
|----------------------------------| 

Endw
            
Hard to play? Try these video lessons and learn fast. | Correct




comments powered by Disqus
↑ Back to top | Tablatures and chords are parodies/interpretations of the original songs. You may use it for private study, scholarship, research or language learning purposes only