» » »

Krisiun, Vicious Wrath Tabs (ver.2)

Artists:  A B C D E F G H I J K L M N O P Q R S T U V W X Y Z # 

Vicious Wrath Tabs (ver.2)

Krisiun Tabs
 Rating:
4.2/5 (5 votes)
Vicious Wrath lessons Tabs too difficult? Try these video lessons and learn fast
1
                Band: Krisiun

Code:
Suffixes for bend:
fb - full bend       hb - half bend
qb - quarter bend    t - tap bend
r - release bend

Suffixes for harmonic:
^ - pinched harmonic      n – natural harmonic

Suffixes for mute:
. – palm mute            x – staccato mute
, - light palm mute      ; - heavy palm mute

Other:
/ - slide up to            \ - slide down to       
h - hammer on              p - pull off
" - tremolo note           <> - Trill
* - see comment


Tuning B E A D F# B

Intro (0:00)
|-----------------------------------------------------------|
|-----------------------------------------------------------|
|-----------------------------------------------------------|
|------------3--9----------10--9----------3--9----------10--|
|-2----------1--7----------8---7----------1--7----------8---|
|-0----0-0-0---------0-0-0----------0-0-0---------0-0-0-----|
       . . .         . . .          . . .         . . .

Riff 1 (0:13) play twice
|--------------------------------------------------------------------
|--------------------------------------------------------------------
|--------------------------------------------------------------------
|-------------------------------------3------------------------------
|-------------------------------------1------------------------------
|-1-0-0-0---4-1-0-0---1-0-0-0---4-1-0----1-0-0-0---4-1-0-0---1-0-0-0-
  . . . .   . . . .   . . . .   . . .    . . . .   . . . .   . . . .

-----------|
-----------|
--------5--|
--------3--|
-----------|
--4-1-0----|
  . . .

Riff 2a (0:25) play twice
|-------------------------------------------------------------|
|-------------------------------------------------------------|
|-------------------------------------------------------2-----|
|-------2-----------4-----------2-----------4-----------------|
|-----------------2---2-------------------2---2-------5---5---|
|-0-1-4---4-1-0-4-------4-0-1-4---4-1-0-4-------4-0-6-------6-|
  . . .   . . . . .   . . . . .   . . . . .   . . . . .   . .

Riff 1 x 1 (0:34)

Riff 2b (0:45) play twice
|-------------------------------------------------------------|
|-------------------------------------------------------------|
|-------------------------------------------------------2-----|
|-------2-----------4-----------2-----------4-----------------| gtr 1
|-----------------2---2-------------------2---2-------5---5---|
|-0-1-4---4-1-0-4-------4-0-1-4---4-1-0-4-------4-0-6-------6-|
  . . .   . . . . .   . . . . .   . . . . .   . . . . .   . .

|-------------------------------------------------------------|
|-------------------------------------------------------------|
|-------2-----------4-----------2-----------4-----------7-----|
|-----------------2---2-------------------2---2-------5---5---| gtr 2
|-0-1-4---4-1-0-4-------4-0-1-4---4-1-0-4-------4-0-6-------6-|
|-------------------------------------------------------------|
  . . .   . . . . .   . . . . .   . . . . .   . . . . .   . .

Riff 3a (0:54)
|-----------------------------------------------------------------|
|-----------------------------------------------------------8-----|
|-------6------------9-------------6-----------9----------5---5---|
|-------------------------------------------------------5-------5-|
|---5-8---8-5---8-10---10-8---5-8---8-5---8-10---10-8-------------|
|-0-----------0-------------0-----------0-------------0-----------|
  . . .   . . . . .    .  . . . .   . . . . .    .  . . . .   . .


Riff 3b (0:57)

Guitar One
|-----------------------------------------------------------------|
|-----------------------------------------------------------8-----|
|-------6------------9-------------6-----------9----------5---5---|
|-------------------------------------------------------5-------5-|
|---5-8---8-5---8-10---10-8---5-8---8-5---8-10---10-8-------------|
|-0-----------0-------------0-----------0-------------0-----------|
  . . .   . . . . .    .  . . . .   . . . . .    .  . . . .   . .

Guitar Two
|------------------------------------------------------------------|
|-------5------------8-------------5-----------8------------11-----|
|---------------------------------------------------------8----8---|
|---3-6---6-3---6-8----8--6---3-6---6-3---6-8----8-6----8--------8-|
|------------------------------------------------------------------|
|-0-----------0-------------0-----------0-------------0------------|
  . . .   . . . . .    .  . . . .   . . . . .    .  . . . .    . .


Riff 1 x 1 (1:01)

Riff 4 (1:13)
         [x3]        [x4]         [x2]         [x2]         [x4]
|-----------|-----------|------------|------------|------------|
|-----------|-----------|------------|-------10\--|-------12\--|
|-------5\--|-------8\--|-------11\--|-------7-\--|-------9-\--|
|-------3\--|-------6\--|-------9-\--|------------|------------|gtr 1
|-----------|-----------|------------|------------|------------|
|-4-1-0-----|-4-1-0-----|-4-1-0------|-4-1-0------|-4-1-0------|
  . . .       . . .       . . .        . . .        . . .

         [x3]        [x4]         [x2]         [x2]         [x4]
|-------13r-|-------16r-|--------19r-|-------22r--|-------24r--|
|-----------|-----------|------------|------------|------------|
|-----------|-----------|------------|------------|------------|
|-----------|-----------|------------|------------|------------|gtr 2
|-----------|-----------|------------|------------|------------|
|-----------|-----------|------------|------------|------------|
  . . .       . . .       . . .        . . .        . . .

Riff 1 x 1 (1:25)
Riff 4 x 1 (1:37)
Riff 2b x 1 (1:49)

Fill 1a (1:57)
|-------------------------------------------------|
|-------------------------------------------------|
|---------------------------------------------3h6-|
|-------------------------------------------------| gtr 1
|-----4h7-------------4h7-------------4h7-4h7-----|
|-6h9-----0-0-0-0-6h9-----0-0-0-0-6h9-------------|
          . . . .         . . . .

|-------------------------------------------------|
|-------------------------------------------------|
|---------------------------------------------6h9-|
|-------------------------------------2h5-2h5-----| gtr 2
|---------------------------------4h6-------------|
|-------------------------------------------------|

Fill 1b (2:00)
|---------------------------------------------------------|
|-----------------------------------------------------2h5-|
|---------------------------------------------3h6-3h6-----|
|---------------------------------------------------------| gtr 1
|-----4h7-------------4h7-------------4h7-4h7-------------|
|-6h9-----0-0-0-0-6h9-----0-0-0-0-6h9---------------------|
          . . . .         . . . .

|---------------------------------------------------------|
|-----------------------------------------------------5h8-|
|---------------------------------------------6h9-6h9-----|
|-------------------------------------2h5-2h5-------------| gtr 2
|---------------------------------4h6---------------------|
|---------------------------------------------------------|

Riff 5a (2:04)
|-------------------------------------------------|
|-------------------------------------------------|
|---------------------------------------------3h6-|
|-------------------------------------------------| gtr 1
|-----4h7-------------4h7-------------4h7-4h7-----|
|-6h9-----0-0-0-0-6h9-----0-0-0-0-6h9-------------|
          . . . .         . . . .

|-------------------------------------------------|
|-------------------------------------------------|
|---------------------------------------------6h9-|
|-------------------------------------2h5-2h5-----| gtr 2
|-----4h7-------------4h7---------4h6-------------|
|-6h9-----0-0-0-0-6h9-----0-0-0-0-----------------|
          . . . .         . . . .

Riff 5b (2:07)
|---------------------------------------------------------|
|-----------------------------------------------------2h5-|
|---------------------------------------------3h6-3h6-----|
|---------------------------------------------------------| gtr 1
|-----4h7-------------4h7-------------4h7-4h7-------------|
|-6h9-----0-0-0-0-6h9-----0-0-0-0-6h9---------------------|
          . . . .         . . . .

|---------------------------------------------------------|
|-----------------------------------------------------5h8-|
|---------------------------------------------6h9-6h9-----|
|-------------------------------------2h5-2h5-------------| gtr 2
|-----4h7-------------4h7---------4h6---------------------|
|-6h9-----0-0-0-0-6h9-----0-0-0-0-------------------------|
          . . . .         . . . .

Riff 5a x 1 (2:11)
Riff 5b x 1 (2:14)
Riff 5a x 1 (2:18)
Riff 5b x 1 (2:21)

Solo begins at (2:25)

Riff 6 (2:25) 4 times
|----------------------------------|
|----------------------------------|
|----------------------------------|
|----------------------------------|
|----------------------------------|
|-000000000000000000000000-0-0-0---|
  ........................ . . .

Solo ends at (2:32)

Riff 5a x 1 (2:32)
Riff 5b x 1 (2:35)
Riff 5a x 1 (2:39)
Riff 5b x 1 (2:42)

Solo begins at (2:46)
Riff 6 x 1 (2:46)
Intro x 1 (2:54)
Riff 1 x 1 (3:06)
Solo ends at (3:18)

Riff 2a x 1 (3:18)
Riff 1 x 1 (3:26)
Riff 4 x 1 (3:38)
End (3:50)
            
Submit corrections

comments powered by Disqus
↑ Back to top | Krisiun Tabs for Vicious Wrath. Lyrics for acoustic guitar and electric guitar. 1 Tablatures and chords are parodies/interpretations of the original songs. You may use it for private study, scholarship, research or language learning purposes only