» » »

Krisiun, Soul Devourer Tabs (ver.1)

Artists:  A B C D E F G H I J K L M N O P Q R S T U V W X Y Z # 

Soul Devourer Tabs (ver.1)

Krisiun Tabs
Rating:
0/5 (0 votes)
Hard to play? Try these video lessons and learn fast.
                                  K R I S I U N  -  S O U L  D E V O U R E R
                    From the Album CONQUERORS OF ARMAGEDDON
                          Copyright 2000 CENTURY MEDIA

                             Version 1.1 - MARCH '02

Corrections by: Chris Ninman

For Questions, Comments, Newest Version, or Corrections contact





.  - palm mute                  /  - slide up to
\  - slide down to              ~  - vibrato
h  - hammer on                  b  - bend
p  - pull off                   Suffixes for bend
ph - pinch harmonic             f - full bend    h - half bend
*  - see comment                r - release      t - tap bend
X  - percussion mute            ~ - vibrato bend
@  - slight palm mute           () - ghost note, sustained note

Tune Gtr to C#

--S O U L  D E V O U R E R--

Riff A (4 times)
|-------------------------|
|-------------------------|
|-------------------------|
|-------------------------|
|-----0-------------------|
|-1-2---1-2-4-1-2-4-0-1-3-|
  . . . . . . . . . . . .

Riff B (2 times)
|-------------------------|
|-------------------------|
|-------------------------|
|-------------------------|
|-----0-------------------|
|-1-2---1-2-4-1-2-4-0-1-3-|
| . . . . . . . . . . . .
|-------------------------|
|-------------------------|
|-------------------------|
|-----7-------------------|
|-8-9---8-911-8-911-7-810-|
|-------------------------|

Riff C (2 times)
|-------------------------|
|-------------------------|
|-------------------------|
|-------------------------|
|-----0-------------------|
|-1-2---1-2-4-1-2-4-0-1-3-|
| . . . . . . . . . . . .
|-------------------------|
|-------------------------|
|-------------------------|
|-----6-------------------|
|-7-8---7-810-7-810-6-7-9-|
|-------------------------|

Riff D (4 times)
|-------------------------|
|-------------------------|
|-------------------------|
|-------------------------|
|-----6-------------------|
|-7-8---7-810-7-810-6-7-9-|
|
|-------------------------|
|-------------------------|
|-----8-------------------|
|-910---91012-91012-8-911-|
|-------------------------|
|-------------------------|

Riff E (4 times)
|-------------------------|
|-------------------------|
|-------------------------|
|-------------------------|
|-----1-------------------|
|-2-3---2-3-5-2-3-5-1-2-4-|
|
|-------------------------|
|-------------------------|
|-------------------------|
|-----8-------------------|
|-910---91012-91012-8-911-|
|-------------------------|

Riff F (8 times)
|------------------|
|------------------|
|------------------|
|------------------|
|-------------2----|
|-000000000-23-532-|

Fill 1
|------|
|------|
|------|
|------|
|-2----|
|-0----|

Riff G (7 times)
|---------------------------------|
|---------------------------------|
|---------------------------------|
|---------------------------------|
|---------------------------------|
|-002-334-776-446-002-334-766-441-|
|
|---------------------------------|
|---------------------------------|
|---------------------------------|
|---4-556-998-668---4-556-998-663-|
|---------------------------------|
|-002-334-776-446-002-334-776-441-|

Repeat Riff F (8 times)
Repeat Fill 1

Riff H (1 time) over solo
|---------------------------------------------|
|---------------------------------------------|
|---------------------------------------------|
|-44444444-55555555-99999999-1010101010101010-|
|---------------------------------------------|
|-22222222-33333333-77777777--8-8-8-8-8-8-8-8-|

Riff I (2 times)
|----------------------|
|----------------------|
|----------------------|
|----------------------|
|----------------------|
|-000--223-112-443-223-|
|
|----------------------|
|----------------------|
|----------------------|
|------445-334-665-445-|
|----------------------|
|-000------------------|

Riff J (6 times)
|----------------------|
|----------------------|
|----------------------|
|----------------------|
|----------------------|
|-000--223-112-443-223-|
|
|----------------------|
|----------------------|
|----------------------|
|----------------------|
|-222--445-334-665-445-|
|-000--223-112-443-223-|

Riff K (10 times)
|----------------|
|----------------|
|----------------|
|----------------|
|-----------2----|
|-0-0000--23-532-|
  . ....

Repeat Riff F (5 times)
Repeat Fill 1
Repeat Riff D (4 times)
Repeat Riff E (4 times)

Riff L (8 times)
|---------------------------------------------------------|
|---------------------------------------------------------|
|---------------------------------------------------------|
|---------------------------------------------------------|
|---------------------------------------------------------|
|-00-12131616-00-12131515-00-12131515-00-1112141414141414-|

Riff J (2 times)
|---------------------------------------------------------|
|---------------------------------------------------------|
|---------------------------------------------------------|
|---------------------------------------------------------|
|-00-12131616-00-12131515-00-12131515-00-1112141414141414-|
|---------------------------------------------------------|

Repeat Riff I (2 times)
Repeat Fill 1
Repeat Riff E (7 times)

End
|---|
|---|
|---|
|---|
|-2-|
|-0-|
            

comments powered by Disqus
↑ Back to top | Krisiun Tabs for Soul Devourer. Lyrics for acoustic guitar and electric guitar. Tablatures and chords are parodies/interpretations of the original songs. You may use it for private study, scholarship, research or language learning purposes only