» » »

Saviour's Blood Tabs (ver.1)

Artists:  A B C D E F G H I J K L M N O P Q R S T U V W X Y Z # 

Saviour's Blood Tabs (ver.1)

Krisiun
Rating:
0/5 (0 votes)

Hard to play? Try these video lessons and learn fast.
                Band: Krisiun 


. - palm mute           / - slide up to 
\ - slide down to       x – Staccato 
h - hammer on           p - pull off 
, - slight palm mute    () - ghost note, sustained note 
" - tremolo note        <> - Trill 
L – left channel only   R – right channel only 
* - see comment 

Suffixes for bend 
f - full bend       h - half bend 
q - quarter bend    t - tap bend 
^ - Hold bend       r - release bend 
~ - vibrato bend 

Suffixes for harmonic 
ph - pinched harmonic   n – natural/artificial harmonic 


Tuning B E A D F# B 

Intro A (0:00) 
|-------------------------------4-----3------| 
|-------6-----------6-------------3-----2----| 
|---------4-----------4-------------1-----0--| 
|-----------3-----------3-----6--------------| 
|--------------------------------------------| 
|-0-001-------00001-------0-00---------------| 
  . ... . . . ..... . . . . ... . . . . . . 

Intro B (0:03) 
|-------------------------------4-----3------| 
|-------6-----------6-------------3-----2----| 
|---------4-----------4-------------1-----0--| 
|-----------3-----------3-----6--------------| gtr 1 
|--------------------------------------------| 
|-0-001-------00001-------0-00---------------| 
  . ... . . . ..... . . . . ... . . . . . . 

|--------------------------------------------| 
|-------3-----------3-----------6-----5------| 
|---------1-----------1-----------5-----4----| 
|-----------0-----------0-----6-----3-----2--| gtr 2 
|--------------------------------------------| 
|-0-001-------00001-------0-00---------------| 
  . ... . . . ..... . . . . ... . . . . . . 


Riff 1 (0:06) play 6 times 
|-------------------------------------------| 
|-------------------------------------------| 
|-------------------------------------------| 
|-------3-----------3---------6-6-----5-----| 
|---------2-----------2-----------5-----4---| 
|-0-001-----1-00001-----1-0-00------4-----3-| 
  . ... . . . ..... . . . . ... . . . . . . 


Riff 2a (0:24) play twice 
|----------------------------------------------| 
|----------------------------------------------| 
|----------------------------------------------| 
|------9----------8----------9----------8------| 
|--------8----------7----------8----------7----| 
|-0--0-----7-0--0-----6-0--0-----7-0--0-----6--| 
  .  . . . . .  . . . . .  . . . . .  . . . . 

Riff 2b (0:31) play twice 
|--------------------------------------------------------------------| 
|------11------------10----------11------------10--------------9-----| 
|---------10------------9-----------10------------9--------------8---| 
|------------8------------7------------8------------7--------------6-| 
|-7--7---------8-8-8--------7--7---------8-8-8--------11-11-11-------| 
|--------------------------------------------------------------------| 
  .  . .  .  . . . . .  . . .  . .  .  . . . . . . .  .  .  .  . . . 

Riff 2a x 1/2 (0:40) 

Riff 2c (0:43) 
|----------------------------------------------| 
|----------------------------------------------| 
|----------------------------------------------| 
|------9----------8----------9----------8------| gtr 1 
|--------8----------7----------8----------7----| 
|-0--0-----7-0--0-----6-0--0-----7-0--0-----6--| 
  .  . . . . .  . . . . .  . . . . .  . . . . 

|----------------------------------------------| 
|----------------------------------------------| 
|------9----------8----------9----------8------| 
|--------8----------7----------8----------7----| gtr 2 
|----------7----------6----------7----------6--| 
|-0--0-------0--0-------0--0-------0--0--------| 
  .  . . . . .  . . . . .  . . . . .  . . . . 


Riff 3 (0:47) play 4 times 
|------------------------------------------------------------------| 
|------------------------------------------------------------------| 
|------------------------------------------------------------------| 
|------8---------------9---------------8-------9-------12----------| 
|----8---7---------------8-----------6---7-------8--------11-------| 
|-0--6-----6-0-1-6-6-7-----7-0-1-0-1-------6-0-----7-0-------10-0--| 
       . . . . . . . . . . . . . . . . . . . . . . . . .  .  .  . 

Riff 4 (1:01) play 8 times. * indicates not on last time 

                 [main]        [1, 3, 5, 7]       [2, 4, 6]   [8] 
|-----|-----------------|-----------------|----------------|------| 
|-----|-----------------|-----------------|----------------|------| 
|-----|-----------------|-----------------|----------------|------| 
|-----|-------------5"--|-----------------|-8----------*---|------| 
|-----|-7"--8"--7"------|-7"--8"------7"--|----5"--3---2---|------| 
|-0---|-----------------|---------8"------|-6------1---0---|-6"---| 

Riff 3 x 1/2 (1:30) 
Riff 4 x 1 (1:38) 
Riff 3 x 1 (2:06) 

Solo begins: (2:21) 
Riff 2a x 1 (2:21) 
Riff 2b x 1 (2:28) 
Riff 2a x 1 (2:36) 

Riff 5 (2:44) play 4 times 
|--------------------------------------------------------------------| 
|--------------------------------------------------------------------| 
|--------------------------------------------------------------------| 
|--------5-------------5---------------------------------------------| 
|-8------3------8------3---------------------------------------------| 
|-6--0-0----0-0-6--0-0---0-00000-00000-00000-00000-00000-.........---| 
     . .    . .    . .   . ..... ..... ..... ..... ..... 

Fill 1 (3:05) 
|-------------------------------------| 
|-------------------------------------| 
|-------------------------------------| 
|-----------5-------------------5-----| 
|-8---------3---------8---------3--2--| 
|-6--0--0-0---0---0-0-6--0--0-0----0--| 
     .  . .   .   . .    .  . . 

4/4 bass drum kick (3:10) 


Riff 6 (3:11) play 4 times 
|----------------------------------------| 
|----------------------------------------| 
|-----------------------------------10"--| 
|-9"--8"--9"--12"--9"--8"--9"--12"-------| 
|----------------------------------------| 
|----------------------------------------| 

Riff 7 (3:34) play twice 
|---------------------------------| 
|---------------------------------| 
|---------------------------------| 
|-5"--6"--5"--9"--5"--6"--5"--9"--| 
|---------------------------------| 
|---------------------------------| 

Riff 6 x 1/2 (3:44) 

End (3:55) 
|---| 
|---| 
|---| 
|---| 
|-2-| 
|-0-|
            
Hard to play? Try these video lessons and learn fast. | Correct




comments powered by Disqus
↑ Back to top | Tablatures and chords are parodies/interpretations of the original songs. You may use it for private study, scholarship, research or language learning purposes only