» » »

Krisiun, Ravenous Hordes Tabs (ver.1)

Artists:  A B C D E F G H I J K L M N O P Q R S T U V W X Y Z # 

Ravenous Hordes Tabs (ver.1)

Krisiun Tabs
 Rating:
4/5 (4 votes)
Ravenous Hordes lessons Tabs too difficult? Try these video lessons and learn fast
1
                                      KRISIUN - RAVENOUS HORDES
                      From the Album  AGELESS VENOMOUS 
                      Copyright 2001 (Century Media Records)
                      Version 1.0 - September 2001

For Questions, Comments, Newest Version, or Corrections contact

Check Out Death Warp, With More Transcriptions On It: 

 ..  - palm mute          /  - slide up to 
 \  - slide down to      ~  - vibrato 
 h  - hammer on          b  - bend 
 p  - pull off            Suffixes for bend 
                          ph - pinch harmonic 
                           f - full bend    h - half bend 
 *  - see comment           r - release      t - tap bend 
 X  - percussion mute       ~ - vibrato bend 
 @  - slight palm mute     () - ghost note, sustained note

I = Guitar one, from the left channel
II - Guitar two, from the right channel

Tuning B  (B,E,A,D,F#,B)

Riff 1 (2 times)
|----------------------------------------------------------------|
|----------------------------------------------------------------|
|----------------------------------------------------------------|
|----------------------------------------------------------------|
|-------------------------------------------------------2--3--5--|
|-1--2--4--4--5--7--1--2--4--4--5--7--1--2--4--4--5--7-----------|

Riff 2 (2 times)
|----------------------------------------------------------------|
|----------------------------------------------------------------|
|----------------------------------------------------------------|
|----------------------------------------------------------------|
|-------------------------------------------------------2--3--5--|
|-1--2--4--4--5--7--1--2--4--4--5--7--1--2--4--4--5--7-----------|
|
|----------------------------------------------------------------|
|----------------------------------------------------------------|
|----------------------------------------------------------------|
|-------------------------------------------------------9-10-12--|
|-8-9-11--11-12-14--8-9-11--11-12-14--8-9-11--11-12-14-----------|
|----------------------------------------------------------------|

Riff 3 (1 time)
|--------------------------------------------------------------------|
|--------------------------------------------------------------------|
|--------------------------------------------------------------------|
|--------------------------------------------------------------------|
|----------------5-6-8----------5-6-8--8-9-11--5-6-8-----------------|
|-4-5-7--7-8-10---------7-8-10------------------------7-8-10--4-5-7--|

Riff 3 cont.
|-------------------------------------------------------------|
|-------------------------------------------------------------|
|-------------------------------------------------------------|
|-------------------------------------------------------------|
|---------5-6-8----------5-6-8--8-9-11--5-6-8-----------------|
|-7-8-10---------7-8-10------------------------7-8-10--4-5-7--|

Repeat Riff 2 (2 times)

Fill 1
|-------|
|-------|
|-------|
|-------|
|-------|
|-0-----|
|
|-------|
|-------|
|-------|
|-------|
|-2-----|
|-0-----|

Riff 4 (1 time)
|-------------------------------------------------------------------|
|-------------------------------------------------------------------|
|-------------------------------------------------------------------|
|-----------------------------------------6----------------9--------|
|-2--------------------------------8-7-8----8-7--11-10-11----11-10--|
|-0-----------------------------------------------------------------|
|
|-------------------------------------------------------------------|
|-------------------------------------------------------------------|
|-------------------------------------------------------------------|
|--------6----------------9-----------------------------------------|
|-8-7-8----8-7--11-10-11----11-10--2--------------------------------|
|----------------------------------0--------------------------------|

Riff 4 cont.
|-------------------------------------------------------------------|
|-------------------------------------------------------------------|
|-------------------------------------------------------------------|
|-----------------------------------------6----------------9--------|
|-2--------------------------------8-7-8----8-7--11-10-11----11-10--|
|-0-----------------------------------------------------------------|
|
|-------------------------------------------------------------------|
|-------------------------------------------------------------------|
|-------------------------------------------------------------------|
|--------6----------------9---------------6----------------9--------|
|-8-7-8----8-7--11-10-11----11-10--8-7-8----8-7--11-10-11----11-10--|
|-------------------------------------------------------------------|

Riff 5 (4 times)
|----------------------------------|
|----------------------------------|
|----------------------------------|
|--------6----------------9--------|
|-8-7-8----8-7--11-10-11----11-10--|
|----------------------------------|

Riff 6 (1 time)
|-----------------------|
|-----------------------|
|--------------9"---8---|
|-7"-6--10"-9-----------|
|-----------------------|
|-----------------------|
|
|-----------------------|
|-----------------------|
|-----------------------|
|-----------------------|
|--------------7"---6---|
|-5"-4---8"-7-----------|

Fill 2
|-------|
|-------|
|-------|
|-------|
|-------|
|-0-----|

Repeat Riff 5 (8 times)

Riff 7 (2 times)
|-----------------------------------------------|
|-----------------------------------------------|
|------------8(9)--7(8)-------------7(8)--6(7)--|
|-7"---8(9)--------------6"---7(8)--------------|
|-----------------------------------------------|
|-----------------------------------------------|
|        tr    tr    tr         tr    tr    tr
|-----------------------------------------------|
|-----------------------------------------------|
|-----------------------------------------------|
|-----------------------------------------------|
|------------6(7)--5(6)-------------5(6)--4(5)--|
|-5"---6(7)--------------4"---5(6)--------------|
         tr    tr    tr         tr    tr    tr

Repeat Fill 2
Repeat Riff 5 (8 times)
Repeat Riff 7 (2 times)
Repeat Riff 2 (2 times)
Repeat Fill 2




Riff 8 (4 times)
|-----------------------------------------------------------------|
|-----------------------------------------------------------------|
|-----------------------------------------------------------------|
|------9-10-9---------9-10-9---------10-11-10---------10-11-10----|
|-7-10--------10-7-10--------10-8-11----------11-8-11----------11-|
|-----------------------------------------------------------------|

Riff 9 (2 times)
|---------------------------------------------------------------------|
|---------------------------------------------------------------------|
|---------------------------------------------------------------------|
|-------9-10-9----------9-10-9----------10-11-10----------10-11-10----|
|--7-10--------10--7-10--------10--8-11----------11--8-11----------11-|
|---------------------------------------------------------------------|
|
|---------------------------------------------------------------------|
|---------------------------------------------------------------------|
|---------------------------------------------------------------------|
|-----12-13-12----------12-13-12---------13-14-13---------13-14-13----|
|10-13---------13-10-13---------13-11-14---------14-11-14----------11-|
|---------------------------------------------------------------------|

Riff 10 (2 times)
|-------------------------------------------------------------|
|-------------------------------------------------------------|
|-------------------------------------------------------------|
|-------------------------------------------------------------|
|-----------10------------------13-------------------9--------|
|-12-11-12-----12-11--15-14-15-----15-14--11-10-11-----11-10--|
|
|-------------------------------------------------------------|
|-------------------------------------------------------------|
|-----------12------------------15------------------11--------|
|-14-13-14-----14-13--17-16-17-----17-16--13-12-13-----13-12--|
|-------------------------------------------------------------|
|-------------------------------------------------------------|

Repeat Riff 9 (2 times)

Riff 11 (4 times)
|-------------------------------------------------------------------------|
|-------------------------------------------------------------------------|
|----------13----------------12----------------15----------------13-------|
|-15-14-15----15-14-14-13-14----14-13-17-16-17----17-16-15-14-15----15-14-|
|-------------------------------------------------------------------------|
|-------------------------------------------------------------------------|
|
|-------------------------------------------------------------------------|
|-------------------------------------------------------------------------|
|-------------------------------------------------------------------------|
|-------------------------------------------------------------------------|
|----------11----------------10----------------13----------------11-------|
|-13-12-13----13-12-12-11-12----12-11-15-14-15----15-14-13-12-13----13-12-|


|---------------------------------------------------------|
|----------------------------------------------14---------|
|----------12----------------15-------15-14-15----15-14---|
|-14-13-14----14-13-17-16-17----17-16---------------------|
|---------------------------------------------------------|
|---------------------------------------------------------|
|
|---------------------------------------------------------|
|---------------------------------------------------------|
|---------------------------------------------------------|
|----------------------------------------------11---------|
|----------10----------------13-------13-12-13----13-12---|
|-12-11-12----12-11-15-14-15----15-14---------------------|

Repeat Fill 2
Repeat Riff 5 (4 times)
Repeat Riff 7 (2 times)
Repeat Riff 2 (4 times)
Repeat Riff 3 (1 time)

Ending
|-------|
|-------|
|-------|
|-------|
|-2-----|
|-0-----|
            
Submit corrections

comments powered by Disqus
↑ Back to top | Krisiun Tabs for Ravenous Hordes. Lyrics for acoustic guitar and electric guitar. 1 Tablatures and chords are parodies/interpretations of the original songs. You may use it for private study, scholarship, research or language learning purposes only