» » »

Krisiun, Iron Stakes Tabs (ver.1)

Artists:  A B C D E F G H I J K L M N O P Q R S T U V W X Y Z # 

Iron Stakes Tabs (ver.1)

Krisiun Tabs
 Rating:
4/5 (4 votes)
Iron Stakes lessons Tabs too difficult? Try these video lessons and learn fast
                                            KRISIUN - IRON STAKES 
                   From the Album CONQUERORS OF ARMAGEDDON
                    Copyright 2000 (Century Media Records)
                         Version 1.0 - November 2001

For Questions, Comments, Newest Version, or Corrections contact
Check Out DEATH WARP, With More Transcriptions On It:
.  - palm mute                    /  - slide up to
\  - slide down to                ~  - vibrato
h  - hammer on                    b  - bend                                   
p  - pull off                          Suffixes for bend
ph - pinch harmonic                     f - full bend    h - half bend
*  - see comment                        r - release      t - tap bend
X  - percussion mute                    ~ - vibrato bend
@  - slight palm mute             () - ghost note, sustained note
"  - tremolo pick until next note 

Tune to C# (C#,F#,B,E,G#,C#)

Riff 1 (8 times)
|----------------------------------------------------|
|----------------------------------------------------|
|----------------------------------------------------|
|----------------------------------------------------|
|----------2-1--------------2-1--------------7-6-----|
|-0000-2-3-----3-2-0000-2-3-----3-2-0000-7-8-----8-7-|

Riff 2 (2 times)
|-------------------------------------------------------------------|
|-------------------------------------------------------------------|
|-------------------------------------------------------------------|
|--------------------------------------------------------------3"6--|
|------7"---6"---3"------------------7"---6"---3"---------2"5-------|
|-0------8----7----4--3"4--7"6--1"0----8----7----4"--3"4------------|

Riff 3 (6 times)
|-----------------------------------|
|-----------------------------------|
|-----------------------------------|
|-----------------------------------|
|----------7-6--------------2-1-----|
|-0000-7-8-----8-7-0000-2-3-----3-2-|

Fill 1
|-------------|
|-------------|
|-------------|
|-------------|
|-3"----------|
|-1"----------|

Repeat Riff 3 (12 times)
Repeat Riff 2 (2 times)

Riff 4 (4 times)
|-----------------------------------|
|-----------------------------------|
|-----------------------------------|
|-----------------------------------|
|----------7-6--------------2-1-----|
|-0000-7-8-----8-7-0000-2-3-----3-2-|
|
|-----------------------------------|
|-----------------------------------|
|-----------------------------------|
|----------7-6----------------------|
|------7-8-----8-7----------7-6-----|
|-0000-------------0000-7-8-----8-7-|

Repeat Riff 3 (10 times)
Repeat Riff 2 (2 times)

Fill 2
|------------|
|------------|
|------------|
|------------|
|-222-222-2--|
|-000-000-0--|

Repeat Riff 1 (2 times)

Riff 5 (2 times)
|----------------------------------------------------|
|----------------------------------------------------|
|----------------------------------------------------|
|----------------------------------------------------|
|----------2-1--------------2-1--------------7-6-----|
|-0000-2-3-----3-2-0000-2-3-----3-2-0000-7-8-----8-7-|
|
|----------------------------------------------------|
|----------------------------------------------------|
|----------------------------------------------------|
|--------------------------------------------7-6-----|
|----------7-6--------------7-6----------7-8-----8-7-|
|-0000-7-8-----8-7-0000-7-8-----8-7-0000-------------|

Riff 6 (1 time)
|-------------------------------------------------|
|-------------------------------------------------|
|-------------------------------------------------|
|-------------------------------------------------|
|-222-222-2---222-222-2---222-222-2---222-222-2---|
|-000-000-0---000-000-0---000-000-0---000-000-0---|

Riff 7 (12 times)
|-----------------|
|-----------------|
|-----------------|
|-----------------|
|-----------------|
|-4-1-0-1-3-1-0-1-|
|
|-----------------|
|-----------------|
|-----------------|
|-----------------|
|-6-------5-------|
|---8-7-8---8-7-8-|

Riff 8 (4 times)
|---------------------|
|---------------------|
|---------------------|
|---------------------|
|-2---------1---------|
|---4--3--4---4--3--4-|
|
|---------------------|
|---------------------|
|---------------------|
|---------------------|
|-9---------8---------|
|--11-10-11--11-10-11-|

Riff 9 (8 times)
|-----------------------|
|-----------------------|
|-----------------------|
|-----------------------|
|-----------------------|
|-4--1--0--1--3--1--0--1|
|
|-----------------------|
|-----------------------|
|-----------------------|
|-----------------------|
|-11---------10---------|
|---13-12-13---13-12-11-|

Fill 3
|-----|
|-----|
|-----|
|-----|
|-----|
|-0---|

Riff 10 (4 times)
|-----------------------------------------|
|-----------------------------------------|
|-----------------------------------------|
|-4--3--6--5-------4--3--6--5--9--8-------|
|-----------------------------------------|
|-2--1--4--3--000--2--1--4--3--7--6--000--|

Riff 11 (2 times)
|--------------------------|
|--------------------------|
|--------------------------|
|--------------------------|
|------4"5--8"7------------|
|-5"6-----------10"6--9"6--|
|
|--------------------------|
|--------------------------|
|--------------------------|
|------2"3--6"5------------|
|-3"4------------8"4--7"4--|
|--------------------------|

Riff 12 (2 times)
|--------------------------|
|--------------------------|
|--------------------------|
|--------------------------|
|------6"7-10"9------------|
|-7"8-----------12"8-11"8--|
|
|--------------------------|
|--------------------------|
|--------------------------|
|------4"5--8"7------------|
|-5"6-----------10"6--9"6--|
|--------------------------|

Repeat Riff 11 (2 times)
Repeat Fill 3
Repeat Riff 10 (4 times)

Riff 13 (2 times)
|-------------------------------------------------|
|-------------------------------------------------|
|-------------------------------------------------|
|-5555--5555--5555--5555--6666--6666--6666--6666--|
|-------------------------------------------------|
|-3333--3333--3333--3333--4444--4444--4444--4444--|

Repeat Fill 3
Repeat Riff 10 (2 times)
Repeat Riff 4 (6 times)
Repeat Fill 1
Repeat Riff 3 (8 times)
Repeat Riff 4 (2 times)

Ending
|------------------|
|------------------|
|------------------|
|------------------|
|-2-------------2--|
|-0--drum-fill--0--|
            
Submit corrections

comments powered by Disqus
↑ Back to top | Krisiun Tabs for Iron Stakes. Lyrics for acoustic guitar and electric guitar. Tablatures and chords are parodies/interpretations of the original songs. You may use it for private study, scholarship, research or language learning purposes only