» » »

Krisiun, Hatred Inherit Tabs (ver.1)

Artists:  A B C D E F G H I J K L M N O P Q R S T U V W X Y Z # 

Hatred Inherit Tabs (ver.1)

Krisiun Tabs
Rating:
0/5 (0 votes)
Hatred Inherit lessons Tabs too difficult? Try these video lessons and learn fast
                                        KRISIUN - HATRED INHERIT
                 From the Album CONQUERORS OF ARMAGEDDON
                      Copyright 2000 CENTURY MEDIA

                         Version 2.0 - JUNE 2001


For Questions, Comments, Newest Version, or Corrections contact


.  - palm mute                  /  - slide up to
\  - slide down to              ~  - vibrato
h  - hammer on                  b  - bend
p  - pull off                   Suffixes for bend
ph - pinch harmonic             f - full bend    h - half bend
*  - see comment                r - release      t - tap bend
X  - percussion mute            ~ - vibrato bend
@  - slight palm mute           () - ghost note, sustained note

Tuning C#

HATRED INHERIT

Riff A                Play 2 times
|--------------------------------|
|--------------------------------|
|--------------------------------|
|--------------------------------|
|----7(8)----7(8)----8(11)-7(10)-|
|-0"------0"------0"-------------|
      tr      tr       tr    tr

Play Riff B           Play 2 times
|--------------------------------|
|--------------------------------|
|--------------------------------|
|--------------------------------|
|----7(8)----7(8)----8(11)-7(10)-|
|-0"------0"------0"-------------|
|     tr      tr       tr    tr
|--------------------------------|
|--------------------------------|
|--------------------------------|
|----9(10)---9(10)---10(13)9(12)-|
|--------------------------------|
|-0"------0"------0"-------------|
      tr      tr       tr    tr

Fill 1
|----|
|----|
|----|
|----|
|----|
|-0"-|


Riff C                                               Play 2 times
|-----------------------------------------------------------------|
|-----------------------------------------------------------------|
|-----------------------------------------------------------------|
|-9-------8-------9--10--9--3------9-------8--------9--10--13-----|
|-7-------6-------7----------------7-------6--------7---8--11-----|
|---8-7-8---8-7-8-----8--7--1--0"----8-7-8---8-7-8-------------0--|
|
|-----------------------------------------------------------------|
|-----------------------------------------------------------------|
|-9-------8-------9----------------9-------8--------9--10--13-----|
|--------------------10--9--3-------------------------------------|
|-7-------6-------7----------------7-------6--------7---8--11-----|
|---8-7-8---8-7-8-----8--7--1--0"----8-7-8---8-7-8-------------0--|


Riff D    Play 4 times
|---------------------|
|---------------------|
|---------------------|
|---------------------|
|---------------------|
|-3"2-6"5-2"1-4"3-1"0-|


Riff E    Play 4 times
|----------------------|
|----------------------|
|----------------------|
|------8"7-----6"5-----|
|-10"9-6"5-9"8-4"3-8"7-|
|--8"7-----7"6-----6"5-|
|
|----------------------|
|----------------------|
|------8-7-----665-----|
|-10-9-----9-8-----8-7-|
|------6-5-----443-----|
|--8-7-----7-6-----6-5-|

Fill 2
|-----|
|-----|
|-----|
|-----|
|-----|
|-1"0-|

Riff F    Play 12 times
|---------------------|
|---------------------|
|---------------------|
|-5-3-8-7-4-3-6-5-33--|
|-------------------2-|
|-3-2-6-5-2-1-4-3-110-|
|
|---------------------|
|---------------------|
|---------------------|
|---------------------|
|-5"4-8"7-4"3-6"5-3"2-|
|-3"2-6"5-2"1-4"3-1"0-|


Play Riff C 2 times
Play Riff F 12 times
Play Riff E 4 times
Play Fill 2 1 time
Play Riff F 2 times
Play Riff A 2 times
Play Riff B 2 times


Riff G                                                Play 8 times
|-----------------------------------------------------------------|
|-----------------------------------------------------------------|
|-----------------------------------------------------------------|
|----9-----9-----8-----8-----9-----9-----8-----8------------------|
|----7-----7-----6-----6-----7-----7-----6-----6-----9"--8"-3"----|
|-0"----0"----0"----0"----0"----0"----0"----0"----0"-7"--6"-1"-0"-|
|
|-----------------------------------------------------------------|
|-----------------------------------------------------------------|
|----9-----9-----8-----8-----9-----9-----8-----8------------------|
|----------------------------------------------------9"--8"-3"----|
|----7-----7-----6-----6-----7-----7-----6-----6------------------|
|-0"----0"----0"----0"----0"----0"----0"----0"----0"-7"--6"-1"-0"-|


Riff H              Play 4 times
|-------------------------------|
|-------------------------------|
|-------------------------------|
|-4/5-4-------------------------|
|-2/3-2-2-2-5/6-5-2-2-3/4-3-2-2-|
|-------0-0-3/4-3-0-0-1/2-1-0-0-|
        . .       . .       . .

Riff I                            Play 2 times
|---------------------------------------------|
|---------------------------------------------|
|-----9/10\9-----12/13\12-----8/9\8-----5/6\5-|
|---------------------------------------------|
|-----7/-8\7-----10/11\10-----6/7\6-----3/4\3-|
|-0-0--------0-0----------0-0-------0-0-------|
  . .        . .          . .       . .

Riff J                        Play 6 times
|-----------------------------------------|
|-----------------------------------------|
|----9/10\9----12/13\12----8/9\8----5/6\5-|
|-----------------------------------------|
|----7/-8\7----10/11\10----6/7\6----3/4\3-|
|-0"--------0"----------0"-------0"-------|


Play Riff H 4 times

Riff K Play 8 times
|--------------|
|--------------|
|--------------|
|--------------|
|--------------|
|-3"2-5"4-1"0--|


Riff I (Over solo) Play 2 times
|--------------------------|
|--------------------------|
|--------------------------|
|-7"----6"----10"----9"----|
|--------------------------|
|-5"----4"----8"-----7"----|


Play Riff K 8 times
Play Riff C 4 times
Play Riff D 4 times
Play Riff J 7 times


Riff H.1                                     End
|-----------------------------------------------|
|-----------------------------------------------|
|----9/10\9----12/13\12----8/9\8----5/6\5-------|
|-----------------------------------------------|
|----7/-8\7----10/11\10----6/7\6----3/4\3-----2-|
|-0"--------0"----------0"-------0"-------0"--0-|


Brief section of solo
|-17---19--20---16---13--12~--17---19--20---24---23-23~--|
|--------------------------------------------------------|
|--------------------------------------------------------|
|--------------------------------------------------------|
|--------------------------------------------------------|
|--------------------------------------------------------|
|
|--------------------------------------------------------|
|--------------------------------------------------------|
|-14---16--17---13---10--9~---14---16--17---21---20-20~--|
|--------------------------------------------------------|
|--------------------------------------------------------|
|--------------------------------------------------------|
            

comments powered by Disqus
↑ Back to top | Krisiun Tabs for Hatred Inherit. Lyrics for acoustic guitar and electric guitar. Tablatures and chords are parodies/interpretations of the original songs. You may use it for private study, scholarship, research or language learning purposes only