» » »

Krisiun, Father's Perversion Tabs (ver.1)

Artists:  A B C D E F G H I J K L M N O P Q R S T U V W X Y Z # 

Father's Perversion Tabs (ver.1)

Krisiun Tabs
Rating:
0/5 (0 votes)
Father's Perversion lessons Tabs too difficult? Try these video lessons and learn fast
                Band: Krisiun

Code:
Suffixes for bend:
fb - full bend       hb - half bend
qb - quarter bend    t - tap bend
^ - Hold bend        r - release bend
~ - vibrato bend

Suffixes for harmonic:
ph - pinched harmonic      nh – natural harmonic
ah – artificial harmonic   hh – harp harmonic

Suffixes for mute:
. – palm mute            x – staccato mute
, - light palm mute      ; - heavy palm mute

Other:
/ - slide up to            \ - slide down to       
h - hammer on              p - pull off
‘ - sustained note         * - see comment
" - tremolo note           <> - Trill
L – left channel only      R – right channel only
= - 12 string guitar part

Tuning B E A D F# B

Intro (0:03)
                       [x2]
|-------------------------|-------------------------------|
|-------------------------|-------------------------------|
|-------------------------|-------------------------------|
|-------------3-----2-----|-------------3-----6-----------| gtr 1
|----------2-----2-----1--|----------2-----2-----5^---fb--|
|-0--1--4-----------------|-0--1--4-----------------------|
  .  .  .  .  .  .  .  .

|-------------------------|-------------------------------|
|-------------------------|-------------------------------|
|-------------------------|-------------------------------|
|-------------------------|-------------------------------| gtr 2
|-2-----------------------|-(2)------------------5----fb--|
|-0-----------------------|-(0)---------------------------|


Riff 1a (0:10) play 3 times * note the pinch harmonic is VERY slight.
                       [x2]
|-------------------------|-----------------------------|
|-------------------------|-----------------------------|
|-------------------------|-----------------------------|
|-------------3-----2-----|-------------3-----6---*-----|
|----------2-----2-----1--|----------2-----2-----5^-----|
|-0--1--4-----------------|-0--1--4---------------------|
  .  .  .  .  .  .  .  .    .  .  .  .  .  .  .

Riff 1b (0:31) play 4 times
|-------------------------------------|
|-------------------------------------|
|-------------------------------------|
|-------------3-----------------2-----|
|----------2-----------------1--------|
|-0--1--4--------0--0--1--4--------0--|
  .  .  .  .     .  .  .  .  .     .

Riff 2 (0:42) play twice
|-------------------------------------|
|-------------------------------------|
|-------------------------------------|
|-------------3-----------------2-----|
|----------1-----------------1--------|
|-0--1--4-----------0--1--4-----------|
  .  .  .  .        .  .  .  .

|-------------------------------------|
|-------------------------------------|
|-------------5-----------------4-----|
|----------3-----------------3--------|
|-2--3--6-----------2--3--6-----------|
|-------------------------------------|
  .  .  .  .        .  .  .  .

Riff 3 (0:54) play twice
|---------------------------------------------|
|---------------------------------------------|
|---------------------------------------------|
|---------------------------------------------|
|--------7---------7----------6---------6-----|
|-000444---0---014---0-000444---0---014---0---|
  ......   .   ...   . ......   .   ...   .

Riff 4 (1:01) play 4 times
|------------------------------------------------------------------|
|------------------------------------------------------------------|
|------------------------------------------------------------------|
|------------------------------------------------------------------|
|---------7777------------7777------------6666------------6666-----|
|-00004444----444400004444----444400004444----444400004444----4444-|

Riff 3 x 1 (1:16)
Riff 4 x 1/2 (1:23)
Riff 3 x 1 (1:31)

Riff 5 (1:38) play 4 times
|----------------------------------------------------|
|----------------------------------------------------|
|----------------------------------------------------|
|----------------------------------------------------|
|-3--2--3--6--5--2--3--2--3--6--5--2--2--2--2--2--2--|
|-1--0--1--4--3--0--1--0--1--4--3--0--0--0--0--0--0--|
     .  .  .     .     .  .  .     .  .  .  .  .  .

Solo begins at (1:55)

Riff 6 (1:55) play twice
                           [x2]
|-----------------------------|-----------------------------|
|-----------------------------|-----------------------------|
|-----------------------------|-----------------------------|
|-9p7-------------------------|-9p7--------------------8----|
|-----8p7-7h8-8p7-------------|-----8p7-7h8-8p7--------6----|
|-----------------00000000000-|-----------------000000------|
                  ...........                   ......
Solo ends (2:10)
Riff 5 x 1 (2:10)
Solo begins (2:27)
Riff 6 x 1 (2:27)
Solo ends (2:42)

Riff 7a (2:42) play 3 times
|---------------------------------|
|---------------------------------|
|-----------------6-5-----5-4-----|
|-----4-5-8-5-5-5-----7-4-----4---| gtr 1
|-4-7---------------------------7-|
|---------------------------------|
  . . . . . . . . . . . . . . . .
|---------------------------------|
|-----------------5-4-----4-3-----|
|-----2-3-6-2-2-2-----5-4-----2---|
|-2-5---------------------------5-| gtr 2
|---------------------------------|
|---------------------------------|
  . . . . . . . . . . . . . . . .

Riff 7b (2:48)
|-------------------------------------------------------------|
|---------------------------------9-8-----13-12---------------|
|-----------------6-5-----8-7---------9-8-------13-12-12~~----|
|-----4-5-8-5-5-5-----7-4-----8-6-----------------------------| gtr 1
|-4-7---------------------------------------------------------|
|-------------------------------------------------------------|
  . . . . . . . . . . . . . . . . . . . . .  .  .  .
|---------------------------------7-6-----11-10---------------|
|-----------------5-4-----7-6---------7-6-------12-11-11~~----|
|-----2-3-6-2-2-2-----5-4-----6-4-----------------------------|
|-2-5---------------------------------------------------------| gtr 2
|-------------------------------------------------------------|
|-------------------------------------------------------------|
  . . . . . . . . . . . . . . . . . . . . .  .  .  .

Riff 7c (2:52) play 3 times
|-----------------------------------|
|-----------------------------------|
|------------------6-5------5-4-----|
|-----4-5-8--5-5-5-----7--4-----4---| gtr 1
|-4-7-----------------------------7-|
|-----------------------------------|
  . . . . .  . . . . . .  . . . . .
|------------------9-8------8-7-----|
|-----7-8-11-8-8-8-----10-7-----7---|
|-6-9-----------------------------9-|
|-----------------------------------| gtr 2
|-----------------------------------|
|-----------------------------------|
  . . . . . . . . . . . . . . . . .

Riff 7d (2:58)
{guitar 1}
|-------------------------------------------------------------------|
|--------------------------------------9--8--------13-12------------|
|------------------6-5------8--7-------------9--8--------13-12-12~--|
|-----4-5-8--5-5-5-----7--4-------8--6------------------------------|
|-4-7---------------------------------------------------------------|
|-------------------------------------------------------------------|
  . . . . .  . . . . . .  . .  .  .  . .  .  .  .  .  .  .  .
{guitar 2}
|------------------9-8------11-10------16-15-------20-19-16-15-15~--|
|-----7-8-11-8-8-8-----10-7-------11-9-------17-16------------------|
|-6-9---------------------------------------------------------------|
|-------------------------------------------------------------------|
|-------------------------------------------------------------------|
|-------------------------------------------------------------------|
  . . . . . . . . . . . . . . . . . . . . .  .  .  .  .  .  .

Riff 7c x 1 (3:01) w/ wah
Riff 7d x 1 (3:07) w/ wah
Riff 3 x 1 (3:13)
Riff 4 x 2 (3:20)
Riff 1a x 2/3 (3:43)
Riff 2 x 1 (3:57)
Riff 5 x 3 (4:07), 
End (4:45) 
            

comments powered by Disqus
↑ Back to top | Krisiun Tabs for Father's Perversion. Lyrics for acoustic guitar and electric guitar. Tablatures and chords are parodies/interpretations of the original songs. You may use it for private study, scholarship, research or language learning purposes only