» » »

Krisiun, Eyes Of Eternal Scourge Tabs (ver.1)

Artists:  A B C D E F G H I J K L M N O P Q R S T U V W X Y Z # 

Eyes Of Eternal Scourge Tabs (ver.1)

Krisiun Tabs
Rating:
0/5 (0 votes)
Eyes Of Eternal Scourge lessons Tabs too difficult? Try these video lessons and learn fast
                Band: Krisiun 


. - palm mute           / - slide up to 
\ - slide down to       x – Staccato 
h - hammer on           p - pull off 
, - slight palm mute    () - ghost note, sustained note 
" - tremolo note        <> - Trill 
L – left channel only   R – right channel only 
* - see comment 

Suffixes for bend 
f - full bend       h - half bend 
q - quarter bend    t - tap bend 
^ - Hold bend       r - release bend 
~ - vibrato bend 

Suffixes for harmonic 
ph - pinched harmonic   n – natural/artificial harmonic 


Tuning B E A D F# B 

Riff 1a (0:00) 
|----------------------------------------------| 
|----------------------------------------------| 
|----------------------------------------------| 
|----------------------------------------------| gtr 1 
|----------------------------------------------| 
|-2--3--0-2-3--2--3--0-2-3--2--3--5666--3555---| 
  .  .  . . .  .  .  . . .  .  .  ....  .... 

|----------------------------------------------| 
|----------------------------------------------| 
|----------------------------------------------| 
|-4--5--2-4-5--4--5--2-4-5--4--5---------------| gtr 2 
|----------------------------------------------| 
|---------------------------------5666--3555---| 
  .  .  . . .  .  .  . . .  .  .  ....  .... 


Riff 1b (0:04) 
|----------------------------------------------| 
|----------------------------------------------| 
|----------------------------------------------| 
|----------------------------------------------| gtr 1 
|----------------------------------------------| 
|-2--3--0-2-3--2--3--0-2-3--2--3--3555--3444---| 
  .  .  . . .  .  .  . . .  .  .  ....  .... 

|----------------------------------------------| 
|----------------------------------------------| 
|----------------------------------------------| 
|-4--5--2-4-5--4--5--2-4-5--4--5---------------| gtr 2 
|----------------------------------------------| 
|---------------------------------3555--3444---| 
  .  .  . . .  .  .  . . .  .  .  ....  .... 

Riff 1a x 1 (0:07) 
Riff 1b x 1 (0:10) 
Riff 1a x 1 (0:13) 
Riff 1b x 1 (0:17) 
Riff 1a x 1 (0:20) 
Riff 1b x 1 (0:23) 


Riff 2 (0:27) play twice 
|----------------------------------------------| 
|----------------------------------------------| 
|----------------------------------------------| 
|----------------------------------------------| gtr 1 
|-2--3--0-2-3--4--5--2-4-5--2--3--3222--2111---| 
|----------------------------------------------| 
  .  .  . . .  .  .  . . .  .  .  ....  .... 

|----------------------------------------------| 
|----------------------------------------------| 
|-4--5--2-4-5--6--7--4-6-7--4--5---------------| 
|----------------------------------------------| gtr 2 
|---------------------------------5666--3555---| 
|----------------------------------------------| 
  .  .  . . .  .  .  . . .  .  .  ....  .... 


Riff 3 (0:33) play 4 times 
|---------------------------| 
|---------------------------| 
|---------------------------| 
|-4--5--5-6-5--4--5--3-4-3--| 
|---------------------------| 
|---------------------------| 
  .  .  . . .  .  .  . . . 


Riff 4a (0:41) 
|------------------------------------3fb---| 
|--------5-4-5-----5-4-5-----5-4-6-5-------| 
|------------------------------------------| 
|-2--4-5-------4-5-------4-5---------------| gtr 1 
|------------------------------------------| 
|------------------------------------------| 
  .  . .       . .       . . 

|------------------------------------------| 
|------------------------------------------| 
|------------------------------------------| 
|--------2-1-2-----2-1-2-----2-1-3-2-5fb---| gtr 2 
|------------------------------------------| 
|-0--2-3-------2-3-------2-3---------------| 
  .  . .       . .       . . 


Riff 4b (0:45) 
|---------------------------------------| 
|--------5-4-5-----5-4-5-----5-4-6------| 
|-----------------------------------3---| 
|-2--4-5-------4-5-------4-5------------| gtr 1 
|---------------------------------------| 
|---------------------------------------| 
  .  . .       . .       . . 

|---------------------------------------| 
|---------------------------------------| 
|---------------------------------------| 
|--------2-1-2-----2-1-2-----2-1-3------| gtr 2 
|-----------------------------------1---| 
|-0--2-3-------2-3-------2-3------------| 
  .  . .       . .       . . 


Riff 4a x 1 
Riff 4b x 1 
Riff 4a x 1 
Riff 4b x 1 
Riff 4a x 1 
Riff 4b x 1 
Riff 4a x 1 
Riff 4b x 1 
Riff 4a x 1 
Riff 4b x 1 
Riff 3 x 1 (1:30) 
Riff 2 x 1 (1:37) 
Riff 3 x 1/2 (1:45) 
Riff 4a x 1 (1:48) 
Riff 4b x 1 
Riff 4a x 1 
Riff 4b x 1 
Riff 4a x 1 
Riff 4b x 1 
Riff 4a x 1 
Riff 4b x 1 
Riff 3 x 1 (2:21) 
Riff 2 x 1 (2:29) 


Riff 5 (2:37) play 4 times 
|---------------------------| 
|---------------------------| 
|---------------------------| 
|---------------------------| gtr 1 
|---------------------------| 
|-2--3--0-2-3--2--3--0-2-1--| 
  .  .  . . .  .  .  . . . 

|---------------------------| 
|---------------------------| 
|---------------------------| 
|-4--5--2-4-5--4--5--2-4-3--| gtr 2 
|---------------------------| 
|---------------------------| 
  .  .  . . .  .  .  . . . 


Riff 6 (2:44) play 8 times 
|------------------------------------| 
|-------------3-5-6-5-3--------------| 
|-------3-4-6-----------6-4-3--------| 
|-4-5-6-----------------------6-5-4--| 
|------------------------------------| 
|------------------------------------| 


Fill 1 (3:00) 
|----------------------------------| 
|----------------------------------| 
|----------------------------------| 
|----------------------------------| 
|----------------------------------| 
|-0-0-0-0-0-0-0-0-0-0-0-0-0-0-0-0--| 
  . . . . . . . . . . . . . . . . 


Riff 7a (3:03) play 4 times 
|-------------------------------| 
|-------------------------------| 
|--------------h4---------------| 
|---------6p3p0--p3p0--h3p0-----| 
|--------------------h2----h2---| 
|-0-0-0-0-----------------------| 
  . . . . 


Riff 7b (3:13) play 8 times   *indicates not fast 
|------------------------------| 
|------------------------------| 
|--------------h4--------------| 
|---------6p3p0--p3p0--h3p0----| 
|-*******------------h2----h2--| 
|-0000000----------------------| 
  ....... 


Under solo (3:35) play twice 
|----------------------| 
|----------------------| 
|----------------------| 
|----------------------| 
|-7"---6"---5"---4"----| 
|----------------------| 

Riff 1a x 1 (3:51) 
Riff 1b x 1 (3:54) 
Riff 1a x 1 (3:57) 
Riff 1b x 1 (4:00) 
Riff 2 x 1 (4:04) 
Riff 3 x 1 (4:10) 
Riff 5 x 1 (4:23) 
End
            

comments powered by Disqus
↑ Back to top | Krisiun Tabs for Eyes Of Eternal Scourge. Lyrics for acoustic guitar and electric guitar. Tablatures and chords are parodies/interpretations of the original songs. You may use it for private study, scholarship, research or language learning purposes only