» » »

Krisiun, Cursed Scrolls Tabs (ver.1)

Artists:  A B C D E F G H I J K L M N O P Q R S T U V W X Y Z # 

Cursed Scrolls Tabs (ver.1)

Krisiun Tabs
Rating:
0/5 (0 votes)
Cursed Scrolls lessons Tabs too difficult? Try these video lessons and learn fast
                                        KRISIUN - CURSED SCROLLS
                        From the Album CONQUERORS OF ARMAGEDDON
                        Copyright 2000 CENTURY MEDIA
                        Version 2.0 - JUNE 2001


For Questions, Comments, Newest Version, or Corrections contact

Check Out Death Warp, With More Transcriptions On It:

Tablature Notation
------------------
.  - palm mute                  /  - slide up to
\  - slide down to              ~  - vibrato
h  - hammer on                  b  - bend
p  - pull off                   Suffixes for bend
ph - pinch harmonic             f - full bend    h - half bend
*  - see comment                r - release      t - tap bend
X  - percussion mute            ~ - vibrato bend
@  - slight palm mute           () - ghost note, sustained note

Tuning C#

CURSED SCROLLS

Riff A (8 times)
|----------------------|
|----------------------|
|----------------------|
|----------------------|
|-2-2222-2222-2222-2-2-|
|-0-0000-0000-0000-0-0-|
  . .... .... .... . .


Riff B (2 times)
|---------------------|
|---------------------|
|---------------------|
|-------9"--------10"-|
|-------7"--------8"--|
|-0"--------0"--------|
|
|---------------------|
|---------------------|
|-------9"--------10"-|
|---------------------|
|-------7"--------8"--|
|-0"--------0"--------|

Riff C (2 times)
|--------------------------------------------|
|--------------------------------------------|
|--------------------------------------------|
|------------------9"-------------------10"--|
|------------------7"--------------------8"--|
|-0-0000-0-0-0-0--0----0-0000-0-0-0-0--0-----|
|
|--------------------------------------------|
|--------------------------------------------|
|------------------9"-------------------10"--|
|--------------------------------------------|
|------------------7"--------------------8"--|
|-0-0000-0-0-0-0--0----0-0000-0-0-0-0--0-----|

Fill 1
|------------------|
|------------------|
|------------------|
|------------------|
|------------------|
|-0-0000-0-0-0-0--0|

Riff D (1 time)
|------------------------|
|------------------------|
|------------------------|
|------------------------|
|-7"10-8"11-7"10-6"7-3"6-|
|------------------------|

Fill 2
|------|
|------|
|------|
|------|
|------|
|-000--|

Repeat Riff D (3 times)

Fill 3
|------|
|------|
|------|
|------|
|-2----|
|-0----|

Riff E (8 times) *1st time is left guitar only
|---------------------------|
|---------------------------|
|---------------------------|
|---------------------------|
|------7(8)--8(11)--8-7-10--|
|-0"------------------------|
        tr    tr

Fill 4
|-----------|
|-----------|
|-----------|
|-8"--------|
|-6"--------|
|-----------|

Repeat Riff E (10 times)
Repeat Riff D (2 times)

Riff F (2 times)
|-------------------------|
|-------------------------|
|-------------------------|
|-------------------------|
|-7"10--8"11-7"10-6"7-3"6-|
|-------------------------|
|
|-------------------------|
|-------------------------|
|-------------------------|
|-9"12-10"13-9"12-8"9-5"8-|
|-------------------------|
|-------------------------|

Play Riff D (12 times)

Fill 5
|-----|
|-----|
|-----|
|-----|
|-----|
|-0"--|

Repeat Riff C (4 times)

Riff G (8 times)
|-----------------|
|-----------------|
|-----------------|
|-----------------|
|-2-------1-------|
|---3-2-3---2-1-2-|

Riff H (2 times)
|---------------------------------|
|---------------------------------|
|---------------------------------|
|---------------------------------|
|-7-------6-------5-------4-------|
|---8-7-8---7-6-7---6-5-6---5-4-5-|

Riff I (2 times)
|---------------------------------|
|---------------------------------|
|---------------------------------|
|---------------------------------|
|-7-------6-------5-------4-------|
|---8-7-8---7-6-7---6-5-6---5-4-5-|
|
|---------------------------------|
|---------------------------------|
|---------------------------------|
|-9-------8-------7-------6-------|
|--10-9-10--9-8-9---8-7-8---7-6-7-|
|---------------------------------|

Repeat Riff C (4 times)
Repeat Fill 1
Repeat Riff D (2 times)
Repeat Riff F (2 times)
Repeat Fill 2
Repeat Riff G (8 times)
Repeat Riff H (4 times)
Repeat Riff D (12 times) *1st time left gtr only
Repeat Fill 5
Repeat Riff A (4 times)

Riff J (2 times)
|--------------------------|
|--------------------------|
|--------------------------|
|--------------------------|
|-7"----10-7-----11-8------|
|------------8-7------9-8--|

Riff K (2 times)
|--------------------------|
|--------------------------|
|--------------------------|
|--------------------------|
|-7"----10-7-----11-8------|
|------------8-7------9-8--|
|
|--------------------------|
|--------------------------|
|--------------------------|
|-9"----12-9----13-10------|
|-----------10-9-----11-10-|
|--------------------------|

Riff L (2 times)
|--------------------------|
|--------------------------|
|--------------------------|
|--------------------------|
|-7"----10-7-----11-8------|
|------------8-7------9-8--|
|
|--------------------------|
|--------------------------|
|-9"----12-9----13-10------|
|-----------10-9-----11-10-|
|--------------------------|
|--------------------------|

Repeat Riff K (2 times)
Repeat Riff L (6 times)
Repeat Riff K (2 times)


End
|------|
|------|
|------|
|-9----|
|-7----|
|-0----|
|
|------|
|------|
|-p.h.-|
|-9----|
|------|
|------|

Check Out Death Warp, With More Transcriptions On It:
            
Submit corrections

comments powered by Disqus
↑ Back to top | Krisiun Tabs for Cursed Scrolls. Lyrics for acoustic guitar and electric guitar. Tablatures and chords are parodies/interpretations of the original songs. You may use it for private study, scholarship, research or language learning purposes only