» » »

Conquerors Of Armageddon Tabs (ver.1)

Artists:  A B C D E F G H I J K L M N O P Q R S T U V W X Y Z # 

Conquerors Of Armageddon Tabs (ver.1)

Krisiun
Rating:
0/5 (0 votes)

Hard to play? Try these video lessons and learn fast.
                                      KRISIUN - CONQUERORS OF ARMAGEDDON
                   From the Album CONQUERORS OF ARMAGEDDON
                    Copyright 2000 (Century Media Records)
                          Version 1.0 - April 2001

For Questions, Comments, Newest Version, or Corrections contact
Check Out DEATH WARP, With More Transcriptions On It:
.  - palm mute                    /  - slide up to
\  - slide down to                ~  - vibrato
h  - hammer on                    b  - bend                                   
p  - pull off                          Suffixes for bend
ph - pinch harmonic                     f - full bend    h - half bend
*  - see comment                        r - release      t - tap bend
X  - percussion mute                    ~ - vibrato bend
@  - slight palm mute             () - ghost note, sustained note
"  - tremolo pick until next note

Tune to C# (C#,F#,B,E,G#,C#)

Riff 1 (5 times)
|------------------------------------------------------|
|------------------------------------------------------|
|------------------------------------------------------|both
|-9--8--10--9--6--5--8--7--9--8--10--9--6-5-9-8-12-----| gtrs
|-7--6---8--7--4--3--6--5--7--6---8--7--4-3-7-6-10-----|
|--00-00--00-00-00-00-00-00-00-00--00-00------------0"-|
   .. ..  .. .. .. .. .. .. .. ..  .. .. 

Riff 2 (4 times)
|--------------------------------------------------|
|--------------------------------------------------|
|-5--4--9--8--12-11--8--7--------------------------|left
|--------------------------9--8-10--9--6--5--------| gtr
|-3--2--7--6--10--9--6--5--------------------3--2--|
|--------------------------7--6--8--7--4--3--1--0--|
|
|--------------------------------------------------|
|--------------------------------------------------|
|--------------------------------------------------|right
|-5--4--9--8--12-11--8--7--------------------------| gtr
|-3--2--7--6--10--9--6--5--9--8-10--9--6--5--3--2--|
|--------------------------7--6--8--7--4--3--1--0--|

Riff 1 (2 times)

Riff 3a (1 time)
|-------------------------------------------------------------|
|-------------------------------------------------------------|
|-------------------------------------------------------------|
|-9--10--9----------------------9--10--9----------------------|
|-7---8--7------9"--10"--13"----7---8--7------9"--8"--3"--2"--|
|--0"--0"----0"-7"---8"--11"--0"-0"--0"----0"-7"--6"--1"--0"--|
|
|-------------------------------------------------------------|
|-------------------------------------------------------------|
|-------------------------------------------------------------|
|-9--10--9---------------ph-----9--10-ph----------------------|
|-7---8--7------9"--10"---6-----7---8--7------9"--8"--3"--2"--|
|--0"--0"----0"-7"---8"-------0"-0"--0"----0"-7"--6"--1"--0"--|

Riff 3b (1 time)
|-------------------------------------------------------------|
|-------------------------------------------------------------|
|-------------------------------------------------------------|
|-9--10--9----------------------9--10--9----------------------|
|-7---8--7------9"--10"--13"----7---8--7------9"--8"--3"--2"--|
|--0"--0"----0"-7"---8"--11"--0"-0"--0"----0"-7"--6"--1"--0"--|
|
|-------------------------------------------------------------|
|-------------------------------------------------------------|
|-------------------------------9--10--9----------------------|
|-9--10--9----------------------------------------------------|
|-7---8--7------9"--10"--13"----7---8--7------9"--8"--3"--2"--|
|--0"--0"----0"-7"---8"--11"--0"-0"--0"----0"-7"--6"--1"--0"--|

Riff 3 (4 times)
|-------------------------------------------------------------|
|-------------------------------------------------------------|
|-------------------------------------------------------------|
|-9--10--9----------------------9--10--9----------------------|
|-7---8--7------9"--10"--13"----7---8--7------9"--8"--3"--2"--|
|--0"--0"----0"-7"---8"--11"--0"-0"--0"----0"-7"--6"--1"--0"--|

Riff 2 (4 times)
Riff 3b (1 time)

Riff 3c (1 time)
|-------------------------------------------------------------|
|-------------------------------------------------------------|
|-------------------------------------------------------------|
|-9--10--9----------------------9--10--9----------------------|
|-7---8--7------9"--10"--13"----7---8--7------9"--8"--3"--2"--|
|--0"--0"----0"-7"---8"--11"--0"-0"--0"----0"-7"--6"--1"--0"--|
|
|-------------------------------------------------------------|
|-------------------------------------------------------------|
|-9--10--9----------------------------------------------------|
|-------------------------------9--10--9----------------------|
|-7---8--7------9"--10"--13"----7---8--7------9"--8"--3"--2"--|
|--0"--0"----0"-7"---8"--11"--0"-0"--0"----0"-7"--6"--1"--0"--|

Riff 3d (2 times)
|-------------------------------------------------------------|
|-------------------------------------------------------------|
|-------------------------------------------------------------|
|-9--10--9----------------------9--10--9----------------------|
|-7---8--7------9"--10"--13"----7---8--7------9"--8"--3"--2"--|
|--0"--0"----0"-7"---8"--11"--0"-0"--0"----0"-7"--6"--1"--0"--|
|
|-------------------------------------------------------------|
|-------------------------------------------------------------|
|-------------------------------------------------------------|
|-9--10--9----------------------9--10--9------9---8---3---2---|
|-7---8--7------9"--10"--13"----7---8--7----------------------|
|--0"--0"----0"-7"---8"--11"--0"-0"--0"----0"-7---6---1---0---|

Riff 2 (4 times)

Riff 1b (4 times)
|------------------------------------------------------|
|------------------------------------------------------|
|------------------------------------------------------|
|-9--8--10--9--6--5--8--7--9--8--10--9--6-5-9-8-12-----|
|-7--6---8--7--4--3--6--5--7--6---8--7--4-3-7-6-10-----|
|--00-00--00-00-00-00-00-00-00-00--00-00------------0"-|
|  .. ..  .. .. .. .. .. .. .. ..  .. ..
|------------------------------------------------------|
|------------------------------------------------------|
|---------------------------------------6-5-9-8-12-----|
|-9--8--10--9--6--5--8--7--9--8--10--9-----------------|
|-7--6---8--7--4--3--6--5--7--6---8--7--4-3-7-6-10-----|
|--00-00--00-00-00-00-00-00-00-00--00-00------------0"-|
   .. ..  .. .. .. .. .. .. .. ..  .. ..

Riff 4 (6 times)
|--------------------------------------------------------|
|--------------------------------------------------------|
|--------------------------------------------------------|left
|----9/10\9"------10/11\10"------9"-------------13"-10"--| gtr
|----7/-8\7"-------8/-9\-8"------7"------9"-10"-11"--8"--|
|-0"-----------0"-------------0"------0"-7"--8"----------|
|
|--------------------------------------------------------|
|--------------------------------------------------------|
|----9/10\9-------10/11\10-------9-----------------------|
|--------------------------------------------------------|right
|----7/-8\7--------8/-9\-8-------7-------9"-10"--6"--3"--| gtr
|-0"-----------0"-------------0"------0"-7"--8"--4"--1"--|


Riff 5 (4 times)
|------------|
|------------|
|------------|
|------------|
|---------8--|
|-0"------6--|


Riff 4 (5 times)

Under solo

Riff 2 (4 times)

Riff 6 (1 time)
|-------------------------------------------------|
|-------------------------------------------------|
|-------------------------------------------------|
|-7"----6"----5"----4"----8"----9"----8"----9"----|
|-5"----4"----3"----2"----6"----7"----6"----7"----|
|-------------------------------------------------|

Riff 2 (4 times)
End solo

Riff 1 (2 times)
Riff 3d (2 times)

Riff 3e (1 time)
|-------------------------------------------------------------|
|-------------------------------------------------------------|
|-------------------------------------------------------------|
|-9--10--9----------------------9--10--9----------------------|
|-7---8--7------9"--10"--13"----7---8--7------9"--8"--3"--2"--|
|--0"--0"----0"-7"---8"--11"--0"-0"--0"----0"-7"--6"--1"--0"--|
|
|-------------------------------------------------------------|
|-------------------------------------------------------------|
|-9--10--9----------------------9--10--9----------------------|
|---------------9---10---13-------------------9---8---3---2---|
|-7---8--7----------------------7---8--7----------------------|
|--0"--0"----0"-7----8---11---0"-0"--0"----0"-7---6---1---0---|


Riff 2 (3 times)

Ending
|-----------------------------------------------|
|-----------------------------------------------|
|-5--4--9--8--12-11--8--7-----------------------|left
|--------------------------9--8-10--9--6--5-----| gtr
|-3--2--7--6--10--9--6--5--------------------3--|
|--------------------------7--6--8--7--4--3--1--|
|
|-----------------------------------------------|
|-----------------------------------------------|
|-5"-4"-9"-8"-12"11"-8"-7"----------------------|right
|--------------------------9"-8"10"-9"-6"-5"----| gtr
|--------------------------------------------3--|
|--------------------------------------------1--|
            
Hard to play? Try these video lessons and learn fast. | Correct




comments powered by Disqus
↑ Back to top | Tablatures and chords are parodies/interpretations of the original songs. You may use it for private study, scholarship, research or language learning purposes only