» » »

Bloodcraft Tabs (ver.1)

Artists:  A B C D E F G H I J K L M N O P Q R S T U V W X Y Z # 

Bloodcraft Tabs (ver.1)

Krisiun
Rating:
0/5 (0 votes)

Hard to play? Try these video lessons and learn fast.
                Band: Krisiun

Code:
Suffixes for bend:
fb - full bend       hb - half bend
qb - quarter bend    t - tap bend
r - release bend

Suffixes for harmonic:
^ - pinched harmonic      n – natural harmonic

Suffixes for mute:
. – palm mute            x – staccato mute
, - light palm mute      ; - heavy palm mute

Other:
/ - slide up to            \ - slide down to
h - hammer on              p - pull off
" - tremolo note           <> - Trill
* - see comment

Tuning B E A D F# B

Intro A (0:04) play 3 times
|-----------------------------------------------|
|-----------------------------------------------|
|-----------------------------------------------|
|-----------------------------------------------|
|-----------------------------------------------|
|-222---222---22222222222---222---22222222222---|
  ...   ...   ...........   ...   ...........

Intro B (0:15) play 2 times
|-----------------------------------------------|
|-----------------------------------------------|
|-----------------------------------------------|
|-----------------------------------------------| gtr 1
|-----------------------------------------------|
|-222---222---22222222222---222---22222222222---|
  ...   ...   ...........   ...   ...........

|-----------------------------------------------|
|-----------------------------------------------|
|-----------------------------------------------|
|-----------------------------------------------| gtr 2
|-----------------------------------------------|
|-2"--------------------------------------------|
  .

Riff 1 (0:23)
                                             [x2]            [x3]
|-----------------------------------------------|---------------|
|-----------------------------------------------|---------------|
|-----------------------------------------------|---------------|
|-----------------------------------------------|---------------|
|-----------------------------------------------|---------------|
|-222---222---22222222222---222---22222222222---|-22222222222---|
  ...   ...   ...........   ...   ...........     ...........


Riff 2a (0:35)
                           [x4]
|-----------------------------|-----|
|-----------------------------|-----|
|-----------------------------|-----|
|-------------5-4-5-3---------|-----|
|-------3-5-3---------4-3-----|-----|
|-2-3-6-------------------5-3-|-2---|
  . . . . . . . . . . . . . .   .x

Riff 2b (0:43)
                           [x4]
|-----------------------------|-----|
|-----------------------------|-----|
|-----------------------------|-----|
|-------------5-4-5-3---------|-----| gtr 1
|-------3-5-3---------4-3-----|-----|
|-2-3-6-------------------5-3-|-2---|
  . . . . . . . . . . . . . .   .x

                           [x4]
|-----------------------------|-----|
|-----------------------------|-----|
|-----------------------------|-----|
|-------------8-7-8-6---------|-----| gtr 2
|-------6-8-6---------7-6-----|-----|
|-5-6-9-------------------8-6-|-2---|
  . . . . . . . . . . . . . .   .x

Riff 1 x 1 (0:52)
Riff 2a x 1 (1:03)
Riff 2b x 1 (1:11)

Riff 3a (1:19) play twice
|-------------------------------------------------------------------|
|-------------------------------------------------------------------|
|----------------------------------5--------------------------------|
|----------------------5-4-5-3-----4--------------------5-4-5-3-----|
|-4--------------3-5-3---------4-3-3--------------3-5-3---------4-3-|
|-2--------2-3-6-------------------2--------2-3-6-------------------|
           . . . . . . . . . . . .          . . . . . . . . . . . .

---------|
---------|
---------|
---------|
---------|
-5-3-2-2-|
 . . . .

Riff 3b (1:37)
|-------------------------------------------|
|-------------------------------------------|
|----------------------------------5--------|
|----------------------5-4-5-3-----4--------|
|-4--------------3-5-3---------4-3-3--------|
|-2--------2-3-6-------------------2--------|
           . . . . . . . . . . . .

Riff 4 (1:43) play twice
                        [x2]                       [x4]
|--------------------------|--------------------------|
|--------------------------|--------------------------|
|--------------------------|--------------------------|
|----------5--6--5---------|----------5--6--5---------| gtr 1
|-4--------3--4--3-----5---|-4--------3--4--3-----5---|
|-2--------------------3---|-2--------------------3---|
           .  .                       .  .

|--------------------------|--------------------------|
|--------------------------|--------------------------|
|----------5^-6^-5^~-------|----------------8^~-------|
|--------------------------|----------5--6------------| gtr 2
|-4--------------------5---|-4--------3--4--------5---|
|-2--------------------3---|-2--------------------3---|
                                      .  .

Fill 1 (2:09)
|-------------------|
|-------------------|
|-------------------|
|-------------------|
|-4--------4--------|
|-2--------2--------|

Riff 5a (2:13) play twice
       [x4]      [x4]      [x4]      [x4]
|---------|---------|---------|---------|
|---------|---------|---------|---------|
|---------|---------|---------|---------|
|---------|---------|---------|---------|
|---------|---------|---------|---------|
|-2-3-4-5-|-1-2-3-4-|-2-3-4-5-|-5-6-7-8-|
  . . . .   . . . .   . . . .   . . . .


Riff 5b (2:27)
       [x4]      [x4]      [x4]      [x4]
|---------|---------|---------|----------|
|---------|---------|---------|----------|
|---------|---------|---------|----------|
|-4-5-6-7-|-3-4-5-6-|-4-5-6-7-|-7-8-9-10-|
|---------|---------|---------|----------|
|---------|---------|---------|----------|
  . . . .   . . . .   . . . .   . . . .


Riff 5c (2:35) play twice
       [x4]      [x4]      [x4]      [x4]
|---------|---------|---------|----------|
|---------|---------|---------|----------|
|---------|---------|---------|----------|
|-4-5-6-7-|-3-4-5-6-|-4-5-6-7-|-7-8-9-10-| gtr 1
|---------|---------|---------|----------|
|---------|---------|---------|----------|
  . . . .   . . . .   . . . .   . . . .

|---------|---------|---------|------------|
|---------|---------|---------|------------|
|-6-7-8-9-|-5-6-7-8-|-6-7-8-9-|-9-10-11-12-|
|---------|---------|---------|------------| gtr 2
|---------|---------|---------|------------|
|---------|---------|---------|------------|
  . . . .   . . . .   . . . .   . .  .  .

Riff 5b x 1 (2:42)
Riff 5c x 1 (2:49)

Riff 6 (2:57) play 4 times
|--------------------------------------------------|
|--------------------------------------------------|
|--------------------------------------------------|
|--------------------------------------------------|
|--------------------------------------------------|
|-22222---22222---222-22222--22222---222-22222-----|
  .....   .....   ... .....  .....   ... .....


Riff 1 x 1 (3:16)

Riff 5d (3:28)
       [x4]      [x4]      [x4]      [x4]
|---------|---------|---------|---------|
|---------|---------|---------|---------|
|---------|---------|---------|---------|
|---------|---------|---------|---------| gtr 1
|---------|---------|---------|---------|
|-2-3-4-5-|-1-2-3-4-|-2-3-4-5-|-5-6-7-8-|
  . . . .   . . . .   . . . .   . . . .

       [x4]      [x4]      [x4]      [x4]
|---------|---------|---------|----------|
|---------|---------|---------|----------|
|---------|---------|---------|----------|
|-4-5-6-7-|-3-4-5-6-|-4-5-6-7-|-7-8-9-10-| gtr 2
|---------|---------|---------|----------|
|---------|---------|---------|----------|
  . . . .   . . . .   . . . .   . . . .


Riff 5e (3:35)

       [x4]      [x4]      [x4]            [x4]
|----------|---------|----------|-------------|
|----------|---------|----------|-------------|
|----------|---------|----------|-------------|
|-4-5-6-7--|-3-4-5-6-|-4-5-6-7--|-7--8--9--10-| gtr 1
|----------|---------|----------|-------------|
|----------|---------|----------|-------------|
  . . . .    . . . .   . . . .    .  .  .  .

       [x4]      [x4]      [x4]            [x4]
|----------|---------|----------|-------------|
|-7-8-9-10-|-6-7-8-9-|-7-8-9-10-|-10-11-12-13-|
|----------|---------|----------|-------------|
|----------|---------|----------|-------------| gtr 2
|----------|---------|----------|-------------|
|----------|---------|----------|-------------|
  . . . .    . . . .   . . . .    .  .  .  .

Riff 6 x 1/2 (3:43)

Fill 2 (3:53)
|--------------------------------------------------------------------|
|--------------------------------------------------------------------|
|--------------------------------------------------------------------|
|------------------------------------------------------------5-------|
|------------------------------------------4--------4--------3-------|
|-22222---22222---222-22222--22222---2--2--2--------2----------------|
  .....   .....   ... .....  .....   .  .

---------------|
---------------|
---------------|
-(5)--5--------|
-(3)--3--------|
---------------|

Riff 7 (4:07) play 40 times
|---------------------------------|
|---------------------------------|
|---------------------------------|
|---------------------------------|
|---------------------------------|
|-222-222-222-222-222-222-222-----|
  ... ... ... ... ... ... ...

Accompany all sorts of various leads and fills throughout the course
of Riff 7, as well as the solo which begins at (4:46)

End (5:48)
            
Hard to play? Try these video lessons and learn fast. | Correct




comments powered by Disqus
↑ Back to top | Tablatures and chords are parodies/interpretations of the original songs. You may use it for private study, scholarship, research or language learning purposes only