» » »

The Old Song Tabs (ver.1)

Artists:  A B C D E F G H I J K L M N O P Q R S T U V W X Y Z # 

The Old Song Tabs (ver.1)

Krisis
Rating:
0/5 (0 votes)

Hard to play? Try these video lessons and learn fast.
                Intro:

|------------------------------------------------|
|------------------------------------------------|
|------------------------------------------------|
|------------------------------------------------|
|-999999999-00000000-99999999-55555555-----------|
|------------------------------------------------|

Verse:

|------------------------------------------------|
|------------------------------------------------|
|------------------------------------------------|
|------------------------------------------------|
|------------------------------------------------|
|-0----------------------------------------------|

Chorus
|-------------------------------------------------|
|-------------------------------------------------|
|-------------------------------------------------|
|---66----66----66------66---66----66----66----66-|
|-------------------------------------------------|
|-44---55----00-----00-----44---55----00----00----|

Verse:

|------------------------------------------------|
|------------------------------------------------|
|------------------------------------------------|
|------------------------------------------------|
|------------------------------------------------|
|-0----------------------------------------------|

Chorus
|-------------------------------------------------|
|-------------------------------------------------|
|-------------------------------------------------|
|---66----66----66------66---66----66----66----66-|
|-------------------------------------------------|
|-44---55----00-----00-----44---55----00----00----|
            
Hard to play? Try these video lessons and learn fast. | Correct




comments powered by Disqus
↑ Back to top | Tablatures and chords are parodies/interpretations of the original songs. You may use it for private study, scholarship, research or language learning purposes only