» » »

Short Bus Tabs (ver.1)

Artists:  A B C D E F G H I J K L M N O P Q R S T U V W X Y Z # 

Short Bus Tabs (ver.1)

Krisis
Rating:
0/5 (0 votes)

Hard to play? Try these video lessons and learn fast.
                Hey this is the first song My bandmates and i Wrote it sounds good played with microphones up to the amplifiers...........trust me we've played it many times.

Intro:
E|-------------|
B|-------------|
G|-44----------|
D|-44-44-22-44-|×4
A|-22-44-22-44-|
E|----22-00-22-|

Verse: same as intro
E|-------------|
B|-------------|
G|-44----------|
D|-44-44-22-44-|×4
A|-22-44-22-44-|
E|----22-00-22-|



Chorus:
E|-------------------------------------|
B|-------------------------------------|
G|-44444444----------------------------|
D|-44444444-44444444-66666666-22222222-|×4
A|-22222222-44444444-66666666-22222222-|
E|----------22222222-44444444-00000000-|

Verse
E|-------------|
B|-------------|
G|-44----------|
D|-44-44-22-44-|×4
A|-22-44-22-44-|
E|----22-00-22-|

Chorus:
E|-------------------------------------|
B|-------------------------------------|
G|-44444444----------------------------|
D|-44444444-44444444-66666666-22222222-|×4
A|-22222222-44444444-66666666-22222222-|
E|----------22222222-44444444-00000000-|
            
Hard to play? Try these video lessons and learn fast. | Correct




comments powered by Disqus
↑ Back to top | Tablatures and chords are parodies/interpretations of the original songs. You may use it for private study, scholarship, research or language learning purposes only