» » »

Krisis, No Pun Intended Tabs (ver.1)

Artists:  A B C D E F G H I J K L M N O P Q R S T U V W X Y Z # 

No Pun Intended Tabs (ver.1)

Krisis Tabs
 Rating:
4/5 (4 votes)
No Pun Intended lessons Tabs too difficult? Try these video lessons and learn fast
                Verse:

|-------------------------------------------|
|-------------------------------------------|
|-------------------------------------------|
|-555555---------------555555---------------|
|-333333-777777-222222-333333-777777-222222-|
|--------555555-000000--------555555-000000-|

Chorus:

|----------------------------------------------|
|----------------------------------------------|
|-5555-7777-------------5555-7777--------------|
|-5555-7777-7777-3333---5555-7777-7777-3333----|
|-3333-5555-7777-3333---3333-5555-7777-3333----|
|-----------5555-1111-------------5555-1111----|

Riff:

|---------------------------------------------------|
|---------------------------------------------------|
|--------4----5555--------4---------------4---------|
|---7-5----5--5555---7-5----5--5555---7-5---5-------|
|-5-----------3333-5-----------5555-5---------------|
|------------------------------3333-----------------|
CONTINUED::
|---------------------------------------------------|
|---------------------------------------------------|
|--------4----5555--------4---------------4---------|
|---7-5----5--5555---7-5----5--5555---7-5---5-------|
|-5-----------3333-5-----------5555-5---------------|
|------------------------------3333-----------------|


Verse:

|-------------------------------------------|
|-------------------------------------------|
|-------------------------------------------|
|-555555---------------555555---------------|
|-333333-777777-222222-333333-777777-222222-|
|--------555555-000000--------555555-000000-|

Riff:

|---------------------------------------------------|
|---------------------------------------------------|
|--------4----5555--------4---------------4---------|
|---7-5----5--5555---7-5----5--5555---7-5---5-------|
|-5-----------3333-5-----------5555-5---------------|
|------------------------------3333-----------------|
CONTINUED::
|---------------------------------------------------|
|---------------------------------------------------|
|--------4----5555--------4---------------4---------|
|---7-5----5--5555---7-5----5--5555---7-5---5-------|
|-5-----------3333-5-----------5555-5---------------|
|------------------------------3333-----------------|

Chorus:

|----------------------------------------------|
|----------------------------------------------|
|-5555-7777-------------5555-7777--------------|
|-5555-7777-7777-3333---5555-7777-7777-3333----|
|-3333-5555-7777-3333---3333-5555-7777-3333----|
|-----------5555-1111-------------5555-1111----|
            
Submit corrections

comments powered by Disqus
↑ Back to top | Krisis Tabs for No Pun Intended. Lyrics for acoustic guitar and electric guitar. Tablatures and chords are parodies/interpretations of the original songs. You may use it for private study, scholarship, research or language learning purposes only