» » »

Krisis, Introlude Tabs (ver.1)

Artists:  A B C D E F G H I J K L M N O P Q R S T U V W X Y Z # 

Introlude Tabs (ver.1)

Krisis Tabs
Rating:
0/5 (0 votes)
Introlude lessons Tabs too difficult? Try these video lessons and learn fast
                This song was created in about 5 minutes.. but in fact turned out good.

WE ARE THE SMALL UNSIGNED BAND FROM PORT MOODY BC,,,,, PLEASE WERE LOOKIN FER WORK 

*= times 8
E|-----------------------|
B|-----------------------|
G|-12*----9*-5*-11*-7*---|
D|-12--5*-9--5--11--7----|×2
A|-10--5--7--3--9---5----|
E|-----3-----------------|

E|--------------------------------------------------|
B|--------------------------------------------------|
G|--------------------------------------------------|
D|-----7-----7----7-----7-----7-----7-----7-----7---|×2
A|-6-6---6-6--------------7-7---5-5-----------------|
E|------------6-6---6-6---------------7-7---7-7-----|

E|------------------------------------|
B|------------------------------------|
G|------8-------8--------5------5-----|
D|---10--10---10--10---7--7---7---7---|×2
A|-10-------10-------7------7---------|
E|------------------------------------|

E|-------------|
B|-------------|
G|-5*----5*-7*-|
D|-5--5*-5--7--|×4
A|-3--5--3--7--|
E|----3--------|
            

comments powered by Disqus
↑ Back to top | Krisis Tabs for Introlude. Lyrics for acoustic guitar and electric guitar. Tablatures and chords are parodies/interpretations of the original songs. You may use it for private study, scholarship, research or language learning purposes only