>
 >
You Can Say

You Can Say Guitar Tabs

Krezip - You Can Say chords, tabs, tablatures, lyrics

Guitar lessons | Add/correct | Request | Top 50 tabs Artists:  A B C D E F G H I J K L M N O P Q R S T U V W X Y Z 0-9

You Can Say Guitar Tabs – Krezip

CD, Sheet music, Poster

Do you like You Can Say? Share with your friends now
Tabs

Tuning: Standard

Intro

Guitar 1: Repeat 2x
    Am
e|--------5-------5-------5-------5----------8--------8--------7--------7---|
B|------------5-------5-------5----------5-------10-------10-------10-------|
G|------------------------------------5-------------------------------------|
D|-----7----7---7---7---7---7---7-------------------------------------------|
A|--------------------------------------------------------------------------|
E|--5-----------------------------------------------------------------------|

    Am
e|--------5-------5-------5-------5----------8--------8--------10---------12---|
B|------------5-------5-------5----------5-------10-------10--------10---------|
G|------------------------------------5----------------------------------------|
D|-----7----7---7---7---7---7---7----------------------------------------------|
A|-----------------------------------------------------------------------------|
E|--5--------------------------------------------------------------------------|

Guitar 2 at the second time

e|--------------------------------------------------------------------------|
B|--------------------------------------------------------------------------|
G|--14-14-14-14-14--14-14-14-14-14------------------------------------------|
D|--14-14-14-14-14--14-14-13-13-13------------------------------------------|
A|--12-12-12-12-12--12-12-12-12-12------------------------------------------|
E|--------------------------------------------------------------------------|

e|-----------------------------------------------------------------------------|
B|-----------------------------------------------------------------------------|
G|--14-14-14-14-14--14-14-14-14-14----10-10-10-10-10--10-10-9-9-9--------------|
D|--14-14-14-14-14--14-14-13-13-13----10-10-10-10-10--10-10-9-9-9--------------|
A|--12-12-12-12-12--12-12-12-12-12-----8--8--8--8--8---8--8-7-7-7--------------|
E|-----------------------------------------------------------------------------|

Chorus: Repeat 2x 
You can say...bla..bla..

Guitar 1
e|-------------------------------------------------------------------------------------|
B|-------------------------------------------------------------------------------------|
G|------------------------------------------10-10-10-10-10-10-10-10-9-9-9-9-9-9-9-9----|
D|--7-7-7-7-7-7-7-7-10-10-10-10-10-10-10-10-10-10-10-10-10-10-10-10-9-9-9-9-9-9-9-9----|
A|--7-7-7-7-7-7-7-7-10-10-10-10-10-10-10-10--8--8--8--8--8--8--8--8-7-7-7-7-7-7-7-7----|
E|--5-5-5-5-5-5-5-5--8--8--8--8--8--8--8--8--------------------------------------------|

Guitar 2
e|-------------------------------------------------------------------------------------|
B|-------------------------------------------------------------------------------------|
G|------------------------------------------10-10-10-10-10-10-10-10-9-9-9-9-9-9-9-9----|
D|--7-7-7-7-7-7-7-7-10-10-10-10-10-10-10-10--------------------------------------------|
A|-------------------------------------------8--8--8--8--8--8--8--8-7-7-7-7-7-7-7-7----|
E|--5-5-5-5-5-5-5-5--8--8--8--8--8--8--8--8--------------------------------------------|


Verse 2:

Guitar 1
    Am
e|--------5-------5-------5-------5-------5-------5-------5-------5----------8--------8--------7--------7---|
B|------------5-------5-------5-------5-------5-------5-------5----------5-------10-------10-------10-------|
G|--------------------------------------------------------------------5-------------------------------------|
D|-----7----7---7---7---7---7---7---7---7---7---7---7---7---7---7-------------------------------------------|
A|----------------------------------------------------------------------------------------------------------|
E|--5-------------------------------------------------------------------------------------------------------|

    Am
e|--------5-------5-------5-------5----------8--------8--------10---------12---|
B|------------5-------5-------5----------5-------10-------10--------10---------|
G|------------------------------------5----------------------------------------|
D|-----7----7---7---7---7---7---7----------------------------------------------|
A|-----------------------------------------------------------------------------|
E|--5--------------------------------------------------------------------------|

    Am
e|--------5-------5-------5-------5----------8--------8--------7--------7---|
B|------------5-------5-------5----------5-------10-------10-------10-------|
G|------------------------------------5-------------------------------------|
D|-----7----7---7---7---7---7---7-------------------------------------------|
A|--------------------------------------------------------------------------|
E|--5-----------------------------------------------------------------------|

    Am
e|--------5-------5-------5-------5----------8--------8--------10---------12---|
B|------------5-------5-------5----------5-------10-------10--------10---------|
G|------------------------------------5----------------------------------------|
D|-----7----7---7---7---7---7---7----------------------------------------------|
A|-----------------------------------------------------------------------------|
E|--5--------------------------------------------------------------------------|

Guitar 2 at the second time

Repeat 2x
e|-----------------------------------------------------------------------------|
B|-----------------------------------------------------------------------------|
G|-----------------------------------------------------------------------------|
D|--7-7-7-7-7--7-6-6-6----10-10-10-10-10--10-12--12-12-------------------------|
A|-------------------------------------------12--12-12-------------------------|
E|--5-5-5-5-5--5-4-4-4-----8--8--8--8--8---8-10--10-10-------------------------|

Chorus: Repeat 4x

Guitar 1
e|-------------------------------------------------------------------------------------|
B|-------------------------------------------------------------------------------------|
G|------------------------------------------10-10-10-10-10-10-10-10-9-9-9-9-9-9-9-9----|
D|--7-7-7-7-7-7-7-7-10-10-10-10-10-10-10-10-10-10-10-10-10-10-10-10-9-9-9-9-9-9-9-9----|
A|--7-7-7-7-7-7-7-7-10-10-10-10-10-10-10-10--8--8--8--8--8--8--8--8-7-7-7-7-7-7-7-7----|
E|--5-5-5-5-5-5-5-5--8--8--8--8--8--8--8--8--------------------------------------------|

Guitar 2
e|-------------------------------------------------------------------------------------|
B|-------------------------------------------------------------------------------------|
G|------------------------------------------10-10-10-10-10-10-10-10-9-9-9-9-9-9-9-9----|
D|--7-7-7-7-7-7-7-7-10-10-10-10-10-10-10-10--------------------------------------------|
A|-------------------------------------------8--8--8--8--8--8--8--8-7-7-7-7-7-7-7-7----|
E|--5-5-5-5-5-5-5-5--8--8--8--8--8--8--8--8--------------------------------------------|

Bridge

    Am
e|--------5-------5-------5-------5--|
B|------------5-------5-------5------|
G|-----------------------------------|
D|-----7----7---7---7---7---7---7----|
A|-----------------------------------|
E|--5--------------------------------|

Guitar 1: Repeat 2x
e|----------------------------------------------------------------------------------------------------------------------------------------------------|
B|----------------------------------------------------------------------------------------------------------------------------------------------------|
G|--11--11---11--11---11--10---10--10----14--14---14--14---14--16---16--16----11--11---11--11---11--10---10-10----14--14---14--14---14--13---13-13----|
D|--11--11---11--11---11--10---10--10----14--14---14--14---14--16---16--16----11--11---11--11---11--10---10-10----14--14---14--14---14--13---13-13----|
A|---9---9----9---9----9---8----8---8----12--12---12--12---12--14---14--14-----9---9----9---9----9---8----8--8----12--12---12--12---12--11---11-11----|
E|----------------------------------------------------------------------------------------------------------------------------------------------------|

Guitar 2 with effect.. i don't know what effect.. 
Repeat 2x
e|----------------------------------------------------------------------------------------------------------------------------------------------------|
B|----------------------------------------------------------------------------------------------------------------------------------------------------|
G|--11-11-11-11-11-11-11-11-13-13-13-13-14-14-14-14-14-14-14-11-11-11-11-11-11-11-11-11-11-11-11-11-13-13-13-13-13-14-14-14-14-14-14-14-13-13-13-13---|
D|----------------------------------------------------------------------------------------------------------------------------------------------------|
A|----------------------------------------------------------------------------------------------------------------------------------------------------|
E|----------------------------------------------------------------------------------------------------------------------------------------------------|

Outro:
    F#                               A                            F#                               A                           You can Saaaaaaaay..
e|--------2-------2-------4-------4--------5-------5-------9------------2-------2-------4-------4-------5-------5-------5-------5-------5-------5---|
B|------------2-------2-------2--------------------------9------------------2-------2-------2---------------5-------5-------5-------5-------5-------|
G|---------------------------------------------6------11-----11-------------------------------------------------------------------------------------|
D|-----4----4---4---4---4---4---4-------7----7---7-------------------4----4---4---4---4---4---4-------7---7---7---7---7---7---7---7---7---7---7-----|
A|--------------------------------------------------------------------------------------------------------------------------------------------------|
E|--2--------------------------------5----------------------------2--------------------------------5------------------------------------------------|

Guitar 1: Repeat 6x
e|-------------------------------------------------------------------------------------|
B|-------------------------------------------------------------------------------------|
G|------------------------------------------10-10-10-10-10-10-10-10-9-9-9-9-9-9-9-9----|
D|--7-7-7-7-7-7-7-7-10-10-10-10-10-10-10-10-10-10-10-10-10-10-10-10-9-9-9-9-9-9-9-9----|
A|--7-7-7-7-7-7-7-7-10-10-10-10-10-10-10-10--8--8--8--8--8--8--8--8-7-7-7-7-7-7-7-7----|
E|--5-5-5-5-5-5-5-5--8--8--8--8--8--8--8--8--------------------------------------------|

Guitar 2 Repeat 6x
e|-------------------------------------------------------------------------------------|
B|-------------------------------------------------------------------------------------|
G|------------------------------------------10-10-10-10-10-10-10-10-9-9-9-9-9-9-9-9----|
D|--7-7-7-7-7-7-7-7-10-10-10-10-10-10-10-10--------------------------------------------|
A|-------------------------------------------8--8--8--8--8--8--8--8-7-7-7-7-7-7-7-7----|
E|--5-5-5-5-5-5-5-5--8--8--8--8--8--8--8--8--------------------------------------------|

For any corrections or questions you can mail me.





Comments


Popular Krezip tabs & chords
Don You Feel Afraid Bass Tabs
Thought You Would Be Bass Tabs
You're Wrong Bass Tabs
All My Life 2 Chords
Fine Chords
Ordinary Day Chords
More Than This Tabs
Everything And More Ukulele
Fine Ukulele
Thought You Would Be Ukulele


Song lyrics



↑ Back to top | Tablatures and chords are parodies/interpretations of the original songs. You may use it for private study, scholarship, research or language learning purposes only
© 2014 AZChords.com Contact us | Privacy policy | DMCA | Add/correct tabs | Request tabs | Top 50 tabs