» » »

Krezip, Won Cry Bass tabs (ver.1)

Artists:  A B C D E F G H I J K L M N O P Q R S T U V W X Y Z # 

Won Cry Bass tabs (ver.1)

Krezip Tabs
 Rating:
4/5 (4 votes)
Won	 Cry lessons Tabs too difficult? Try these video lessons and learn fast
1
                Great Song, great band, Enjoy !

This work is 100% correct

intro
-----
  
G)---------|---------|---------|---------|
D)---------|---------|---------|---------|
A)-3---6-5-|-----6-5-|-----6-5-|---6-5---|
E)---------|-6-6-----|-3-3-----|-4-----6-| x3

Last time
G)---------|---------|---------|
D)---------|---------|---------|
A)-3---6-5-|-----6-5-|-----6-2-|
E)---------|-6-6-----|-3-3-----| x1


Verse
-----
G)---------|---------|---------|---------|
D)---------|---------|---------|---------|
A)-3-3-----|---------|---------|-----1-2-|
E)-------3/|-4-4---3\|-1-1---1/|-3-3-----| x3


Pre Chorus
-----------
G)-----------------|-----------------|
D)-----------------|-----------------|
A)---------5-5-6-6-|---------5-6-5---|
E)-4-4-4-4---------|-6-6-6-6-------6-| x2


Chorus
-------
G)---------|---------|---------|---------|
D)-----5---|---------|---------|---------|
A)-3-----3-|-----8---|-----5---|---6-5---|
E)---------|-6-6---6-|-3-3---3-|-4-----6-|

G)---------|---------|---------|---------|
D)-----5---|---------|---------|---------|
A)-3-----3-|-----8---|-----5---|---------|
E)---------|-6-6---6-|-3-3---3-|-4---6---|



Wooo wooo   (:-o)
---------
G)---------|---------|---------|---------|
D)---------|---------|---------|---------|
A)-3-3-3-3-|---------|---------|---------|
E)---------|-6-6-6-6-|-3-3-3-3-|-4-4-4-4-|


Bridge
------

G)-------------------------------|  |----------------------------------|
D)-------------------------------|  |----------------------------------|
A)-3---------x--1----x-----------|  |-3----------x---------------------|
E)-------------------------3---4-|  |-----------------3----x--4----3---|
            
Submit corrections

comments powered by Disqus
↑ Back to top | Krezip Bass for Won Cry. Lyrics for acoustic guitar and electric guitar. 1 Tablatures and chords are parodies/interpretations of the original songs. You may use it for private study, scholarship, research or language learning purposes only