» » »

Thought You Would Be Bass tabs (ver.1)

Artists:  A B C D E F G H I J K L M N O P Q R S T U V W X Y Z # 

Thought You Would Be Bass tabs (ver.1)

Krezip
Rating:
0/5 (0 votes)

Hard to play? Try these video lessons and learn fast.
                
Intro:

G|---------|---------|
D|---------|---------|
A|-0-0-----|-0-0-----|
E|-----3-1-|-----1-0-|


Verse:

G|---------| |-----------|
D|---------|3|-----------|
A|-0-0-----|x|-0-0-------|
E|-----3-1-| |-----3-1-0-|


Chorus:

G|---------| |---------|---------|
D|---------|4|---------|---------|
A|-0-0-----|x|-0-0-----|-0-0-----|
E|-----1-0-| |-----3-1-|-----1-0-|


An easy song to chill and play along. The notes given in the chorus are just the notes to play, not the exact 
times you play them. But you can figure that out real fast. Have fun, and please rate!
            
Hard to play? Try these video lessons and learn fast. | Correct




comments powered by Disqus
↑ Back to top | Tablatures and chords are parodies/interpretations of the original songs. You may use it for private study, scholarship, research or language learning purposes only