>
 >
Same Old Story

Same Old Story Guitar Tabs

Krezip - Same Old Story chords, tabs, tablatures, lyrics

Guitar lessons | Add/correct | Request | Top 50 tabs Artists:  A B C D E F G H I J K L M N O P Q R S T U V W X Y Z 0-9

Same Old Story Guitar Tabs – Krezip

CD, Sheet music, Poster

Do you like Same Old Story? Share with your friends now
Tabs
Krezip  Same Old Story

Intro:

  C5          Bb5          G#5           

|------------------------|-----------------|
|------------------------|-----------------|
|------------------------|-----------------|
|------------------------|-6-----6-----6---|   2x
|-10----10----8-----8----|-6-----6-----6---|
|-8--8--8--8--6--6--6--6-|-4-4-4-4-4-4-4-4-|


Verse:

  C5          Bb5          G#5           

|------------------------|-----------------|
|------------------------|-----------------|
|------------------------|-----------------|
|------------------------|-6-----6-----6---|   4x
|-10----10----8-----8----|-6-----6-----6---|
|-8--8--8--8--6--6--6--6-|-4-4-4-4-4-4-4-4-|


Pre-Chorus:

Guitar 1:

  Bb5              C5            

|----------------|-----------------|
|----------------|-----------------|
|----------------|-----------------|
|-8-----8-----8--|-10----10----10--|
|-8-----8-----8--|-10----10----10--|
|-6-6-6-6-6-6-6-6|-8-8-8-8-8-8-8-8-|

  Bb5              G#5               G#5

|----------------|-----------------|-------------------|
|----------------|-----------------|-------------------|
|----------------|-----------------|-------------------|
|-8-----8-----8--|-6-----6-----6---|-6-----6-------6---|
|-8-----8-----8--|-6-----6-----6---|-6-----6-------6---|
|-6-6-6-6-6-6-6-6|-4-4-4-4-4-4-4-4-|-4-4-4-4-4-4-4-4-4-|
 
Guitar 2:

  Bb             Cm             Bb             G#

|-6------------|-8------------|-6------------|-4------------|
|-6------------|-8------------|-6------------|-4------------|
|-7------------|-8------------|-7------------|-5------------|
|-8------------|-10-----------|-8------------|-6------------|
|-8------------|-10-----------|-8------------|-6------------|
|-6------------|-8------------|-6------------|-4------------|


Chorus:

Guitar 1:

  Eb5         Bb5          G#5           

|------------------------|-----------------|
|------------------------|-----------------|
|-8-----8----------------|-----------------|
|-8-----8-----8-----8----|-6-----6-----6---|   3x
|-6--6--6--6--8-----8----|-6-----6-----6---|
|-------------6--6--6--6-|-4-4-4-4-4-4-4-4-|

  C5                Bb5                     

|-----------------|-----------------|
|-----------------|-----------------|
|-----------------|-----------------|
|-10----10----10--|-8-----8-----8---|
|-10----10----10--|-8-----8-----8---|
|-8-8-8-8-8-8-8-8-|-6-6-6-6-6-6-6-6-|

  G#5               G#5

|-----------------|-----------------|
|-----------------|-----------------|
|-----------------|-----------------|
|-6-----6-----6---|-6-----6-----6---|
|-6-----6-----6---|-6-----6-----6---|
|-4-4-4-4-4-4-4-4-|-4-4-4-4-4-4-4-4-|
 
Guitar 2:

|----6--------6----|
|------------------|
|------------------|  
|--8---8----8---8--|   18x
|------------------|
|------------------|


Verse:

Guitar 1:

  C5          Bb5          G#5           

|------------------------|-----------------|
|------------------------|-----------------|
|------------------------|-----------------|
|------------------------|-6-----6-----6---|   4x
|-10----10----8-----8----|-6-----6-----6---|
|-8--8--8--8--6--6--6--6-|-4-4-4-4-4-4-4-4-|

Guitar 2:

 Cm           Bb       G#

|---------------------|-----------------|
|---------------------|-----------------|
|---------------------|-------5---------|
|------10---------8---|-----6-----6---6-|      4x
|---10----10----8---8-|---6---6-----6---|
|-8-----------6-------|-4---------------|


Pre-Chorus:

Guitar 1:

  Bb5              C5            

|----------------|-----------------|
|----------------|-----------------|
|----------------|-----------------|
|-8-----8-----8--|-10----10----10--|
|-8-----8-----8--|-10----10----10--|
|-6-6-6-6-6-6-6-6|-8-8-8-8-8-8-8-8-|

Bb5              G#5

|----------------|-----------------|
|----------------|-----------------|
|----------------|-----------------|
|-8-----8-----8--|-6-----6-----6---|
|-8-----8-----8--|-6-----6-----6---|
|-6-6-6-6-6-6-6-6|-4-4-4-4-4-4-4-4-|

Guitar 2:

  Bb               Cm 

|----------------|----------------------|
|----------------|----------------------|
|---------7------|------------9---------|
|-----8-----8---8|------10------10----10|
|---8---8-----8--|---10----10------10---|
|-6--------------|-8--------------------|

  Bb               G#              G#

|----------------|----------------|-----------------|
|----------------|----------------|-----------------|
|---------7------|---------5------|---------5-------|
|-----8-----8---8|-----6-----6---6|-----6-----6---6-|
|---8---8-----8--|---6---6-----6--|---6---6-----6---|
|-6--------------|-4--------------|-4---------------|

 
Chorus:

Guitar 1:

  Eb5         Bb5          G#5           

|-------------------------|------------------------|
|-------------------------|------------------------|
|-8--8--8--8--------------|------------------------|
|-8--8--8--8--8--8--8--8--|-6--6--6--6--6--6--6--6-|   3x
|-6--6--6--6--8--8--8--8--|-6--6--6--6--6--6--6--6-|
|-------------6--6--6--6--|-4--4--4--4--4--4--4--4-|

  C5                        Bb5                     

|-------------------------|------------------------|
|-------------------------|------------------------|
|-------------------------|------------------------|
|-10-10-10-10-10-10-10-10-|-8--8--8--8--8--8--8--8-|
|-10-10-10-10-10-10-10-10-|-8--8--8--8--8--8--8--8-|
|-8--8--8--8--8--8--8--8--|-6--6--6--6--6--6--6--6-|

  G#5                       G#5

|-------------------------|------------------------|
|-------------------------|------------------------|
|-------------------------|------------------------|
|-6--6--6--6--6--6--6--6--|-6--6--6--6--6--6--6--6-|
|-6--6--6--6--6--6--6--6--|-6--6--6--6--6--6--6--6-|
|-4--4--4--4--4--4--4--4--|-4--4--4--4--4--4--4--4-|


Guitar 2:

|-6-6-6-6-6-6-6-6-|-6-6-6-6--8b-|
|-----------------|-------------|
|-----------------|-------------|                
|-----------------|-------------|              2x
|-----------------|-------------|
|-----------------|-------------|

|-6-6-6-6-6-6-6-6-|-6-6-6-6-6-6-6-6-|
|-----------------|-----------------|
|-----------------|-----------------|                
|-----------------|-----------------|                
|-----------------|-----------------|
|-----------------|-----------------|
 
|-8-8-8-8-8-8-8-8-|-6-6-6-6-6-6-6-6-|
|-----------------|-----------------|
|-----------------|-----------------|                
|-----------------|-----------------|           2x   
|-----------------|-----------------|
|-----------------|-----------------|


Bridge:

Guitar 1:

  Cm          Bb       G# 

|------------------------|------------------------|
|------------------------|------------------------|
|-8--8--8--8--7--7--7--5-|----5--5--5--5--5--5--5-|
|-10-10-10-10-8--8--8--6-|----6--6--6--6--6--6--6-| 
|-10-10-10-10-8--8--8--6-|----6--6--6--6--6--6--6-|
|-8--8--8--8--6--6--6--4-|----4--4--4--4--4--4--4-|

  G#                       Bb                          > 2x

|------------------------|------------------------|
|------------------------|------------------------|      
|-5--5--5--5--5--5--5--5-|-7--7--7--7--7--7--7--7-| 
|-6--6--6--6--6--6--6--6-|-8--8--8--8--8--8--8--8-|
|-6--6--6--6--6--6--6--6-|-8--8--8--8--8--8--8--8-|
|-4--4--4--4--4--4--4--4-|-6--6--6--6--6--6--6--6-|

  G#                       G#

|------------------------|------------------------|
|------------------------|------------------------|
|-7--7--7--7--7--7--7--7-|-7----------------------|
|-6--6--6--6--6--6--6--6-|-6----------------------|
|-6--6--6--6--6--6--6--6-|-6----------------------|
|-4--4--4--4--4--4--4--4-|-4----------------------|


Guitar 2:

|-8--8--8--8--6--6--6--8-|----8--8--8--8--8--8--8-|
|------------------------|------------------------|
|------------------------|------------------------|
|------------------------|------------------------|
|------------------------|------------------------|
|------------------------|------------------------|
                                                        > 2x
|-6--6--6--6--6--6--6--6-|-8--8--8--8--8--8--8--8-|
|------------------------|------------------------|
|------------------------|------------------------|
|------------------------|------------------------|
|------------------------|------------------------|
|------------------------|------------------------|



|-6--6--6--6--6--6--6--6-|-6----------------------|
|------------------------|------------------------|
|------------------------|------------------------|
|------------------------|------------------------|
|------------------------|------------------------|
|------------------------|------------------------|


Interlude:

Piano:

  Bb5                      G#

|------------------------|------------------------|
|------------------------|------------------------|
|------------------------|------------------------|
|-8----------------------|-6----------------------|
|-8----------------------|-6----------------------|
|-6----------------------|-4----------------------|

  Bb5                      G#

|------------------------|-----------------|-----------------|
|------------------------|-----------------|-----------------|
|------------------------|-----------------|-----------------|
|-8----------------------|-6---------------|-----------------|
|-8----------------------|-6---------------|-----------------|
|-6----------------------|-4---------------|-----------------|




Guitar:

|------------------------|------------------------|
|------------------------|------------------------|
|------------------------|------------------------|
|------------------------|------------------------|
|------------------------|------------------------|
|------------------------|------------------------|


|------------------------|------------------------|
|------------------------|------------------------|
|------------------------|------------------------|
|------------------------|------------------------|
|------------------------|-6--6--6--6--6--6--6--6-|
|------------------------|-4--4--4--4--4--4--4--4-|


|------------------------|
|------------------------|
|------------------------|
|-6--6--6--6--6--6--6--6-|
|-6--6--6--6--6--6--6--6-|
|-4--4--4--4--4--4--4--4-|


Chorus:

Guitar 1:

  Eb5         Bb5          G#5           

|-------------------------|------------------------|
|-------------------------|------------------------|
|-8--8--8--8--------------|------------------------|
|-8--8--8--8--8--8--8--8--|-6--6--6--6--6--6--6--6-|   3x
|-6--6--6--6--8--8--8--8--|-6--6--6--6--6--6--6--6-|
|-------------6--6--6--6--|-4--4--4--4--4--4--4--4-|

  C5                        Bb5                     

|-------------------------|------------------------|
|-------------------------|------------------------|
|-------------------------|------------------------|
|-10-10-10-10-10-10-10-10-|-8--8--8--8--8--8--8--8-|
|-10-10-10-10-10-10-10-10-|-8--8--8--8--8--8--8--8-|
|-8--8--8--8--8--8--8--8--|-6--6--6--6--6--6--6--6-|

 
  Eb5         Bb5          G#5           

|-------------------------|------------------------|
|-------------------------|------------------------|
|-8--8--8--8--------------|------------------------|
|-8--8--8--8--8--8--8--8--|-6--6--6--6--6--6--6--6-|   3x
|-6--6--6--6--8--8--8--8--|-6--6--6--6--6--6--6--6-|
|-------------6--6--6--6--|-4--4--4--4--4--4--4--4-|

  C5                        Bb5                     

|-------------------------|------------------------|
|-------------------------|------------------------|
|-------------------------|------------------------|
|-10-10-10-10-10-10-10-10-|-8--8--8--8--8--8--8--8-|
|-10-10-10-10-10-10-10-10-|-8--8--8--8--8--8--8--8-|
|-8--8--8--8--8--8--8--8--|-6--6--6--6--6--6--6--6-|

  G#5                       G#5

|-------------------------|------------------------|
|-------------------------|------------------------|
|-------------------------|------------------------|
|-6--6--6--6--6--6--6--6--|-6--6--6--6--6--6--6--6-|
|-6--6--6--6--6--6--6--6--|-6--6--6--6--6--6--6--6-|
|-4--4--4--4--4--4--4--4--|-4--4--4--4--4--4--4--4-|


Guitar 2:

|-6-6-6-6-6-6-6-6-|-6-6-6-6--8b-|
|-----------------|-------------|
|-----------------|-------------|                
|-----------------|-------------|              2x
|-----------------|-------------|
|-----------------|-------------|

|-6-6-6-6-6-6-6-6-|-6-6-6-6-6-6-6-6-|
|-----------------|-----------------|
|-----------------|-----------------|                
|-----------------|-----------------|                
|-----------------|-----------------|
|-----------------|-----------------|

|-8-8-8-8-8-8-8-8-|-6-6-6-6-6-6-6-6-|
|-----------------|-----------------|
|-----------------|-----------------|                
|-----------------|-----------------|             
|-----------------|-----------------|
|-----------------|-----------------|

|-6-6-6-6-6-6-6-6-|-6-6-6-6--8b-|
|-----------------|-------------|
|-----------------|-------------|                
|-----------------|-------------|              2x
|-----------------|-------------|
|-----------------|-------------|

|-6-6-6-6-6-6-6-6-|-6-6-6-6-6-6-6-6-|
|-----------------|-----------------|
|-----------------|-----------------|                
|-----------------|-----------------|                
|-----------------|-----------------|
|-----------------|-----------------|


|-8-8-8-8-8-8-8-8-|-6-6-6-6-6-6-6-6-|
|-----------------|-----------------|
|-----------------|-----------------|                
|-----------------|-----------------|           2x   
|-----------------|-----------------|
|-----------------|-----------------|


Outro:

Guitar 1:

  C5          Bb5          G#5           

|------------------------|-----------------|
|------------------------|-----------------|
|------------------------|-----------------|
|------------------------|-----------------|   3x
|-10----10----8-----8----|-6-----6-----6---|
|-8--8--8--8--6--6--6--6-|-4-4-4-4-4-4-4-4-|

  C5          Bb5          G#5          

|------------------------|-----------------|
|------------------------|-----------------|
|------------------------|-----------------|
|------------------------|-6---------------|   
|-10----10----8-----8----|-6---------------|
|-8--8--8--8--6--6--6--6-|-4---------------|
 
Guitar 2:

|----6--------6---|-----------------|
|--6---6----6---6-|-----------------|
|-----------------|-----------------|                
|-----------------|-----------------|           2x 
|-----------------|-----------------|
|-----------------|-----------------|

|----6--------6---|----6--------6---|
|--6---6----6---6-|--6---6----6---6-|
|-----------------|-----------------|                
|-----------------|-----------------|              
|-----------------|-----------------|
|-----------------|-----------------|

|----6--------6---|-----------------|
|--6---6----6---6-|-----------------|
|-----------------|-----------------|                
|-----------------|-----------------|              
|-----------------|-----------------|
|-----------------|-----------------|


Guitar 3:

|-----------------|---<6------------|
|-----------------|-----------------|
|-----------------|-----------------|                
|-----------------|-----------------|              
|-----------------|-----------------|
|-----------------|-----------------|

|-8-------10------|-11---10---8---6-|
|-----------------|-----------------|
|-----------------|-----------------|                
|-----------------|-----------------|              
|-----------------|-----------------|
|-----------------|-----------------|

|-----------------|---<6------------|
|-----------------|-----------------|
|-----------------|-----------------|                
|-----------------|-----------------|              
|-----------------|-----------------|
|-----------------|-----------------|

 
|-6-----8-----10--|-11--------------|
|-----------------|-----------------|
|-----------------|-----------------|                
|-----------------|-----------------|              
|-----------------|-----------------|
|-----------------|-----------------|

                                                 Lex Razoux





Comments


Popular Krezip tabs & chords
Get It On Bass Tabs
Won't Cry 1 Bass Tabs
Everything And More Chords
Fine Chords
I'll Be Gone Chords
Sweet Goodbyes Tabs
Won't Cry Tabs
All My Life Ukulele
Fine Ukulele
Ordinary Day Ukulele


Song lyrics



↑ Back to top | Tablatures and chords are parodies/interpretations of the original songs. You may use it for private study, scholarship, research or language learning purposes only
© 2014 AZChords.com Contact us | Privacy policy | DMCA | Add/correct tabs | Request tabs | Top 50 tabs