» » »

Out Of My Bed Bass tabs (ver.1)

Artists:  A B C D E F G H I J K L M N O P Q R S T U V W X Y Z # 

Out Of My Bed Bass tabs (ver.1)

Krezip
Rating:
5/5 (1 vote)

Tabs too difficult? Try these video lessons and learn fast.
                ---------------------Krezip - Out of my bed-----------------
-------------------------Bass tab---------------------------



Legenda:
x = Mute
/ = slide to right (higher)
\ = slide to left (lower)


Verse 1:
G|-----------------|-------------------|
D|-----------------|-------------------|
A|--------x-4-4\---|-------------------|
E|-6-6\-----------x|2-2---x-2-2---x-2/-|

G|-----------------|-------------------|
D|-----------------|-------------------|
A|--------x-4-4\---|-------------------|
E|-6-6\-----------x|2-2---x-2-2---x-2/-|

G|-----------------|-------------------|
D|-----------------|-------------------|
A|--------x-4\-----|-------------------|
E|-6-6\-----------x|2-2---x-2-2---x-2/-|

G|-----------------|-------------------|
D|-----------------|-------------------|
A|--------x-4-4\---|-------------------|
E|-6\-------------x|2-2---x-2-2---x-2/-|

G|-----------------|-------------------|
D|-----------------|-------------------|
A|--------x-4-4\---|-------------------|
E|-6-6\-----------x|222---x-2-2-------x|

G|-----------------|-------------------|
D|-----------------|-------------------|
A|--------x-4-4\---|-------------------|
E|-6\-------------x|2-2--------2-------|

chorus:

G|-----------------|-------------------|
D|-----------------|-------------------|
A|-----------------|---------4-4-4-4---|
E|-2-2\---x-4-4\---|6-6-6-6------------|


G|-----------------|-------------------|
D|-----------------|-------------------|
A|-----------------|------------8-8----|
E|-2-2\---x-4-4\---|6-6-8-8-9-9--------|

G|-----------------|-------------------|
D|-----------------|-------------------|
A|-----------------|---------4-4-4-4---|
E|-2-2\---x-4-4\---|6-6-6-6------------|

G|-----------------|-------------------|
D|-----------------|-------------------|
A|-----------------|-------------------|
E|-2-2-----x-4-4---|x-2-2--------------|

Verse 2:
G|-----------------|-------------------|
D|-----------------|-------------------|
A|--------x-4-4\---|-------------------|
E|-6-6\-----------x|2-2---x-2-2---x-2/-|

G|-----------------|-------------------|
D|-----------------|-------------------|
A|--------x-4\-----|-------------------|
E|-6-6\-----------x|2-2---x-2-2---x-2/-|

G|-----------------|-------------------|
D|-----------------|-------------------|
A|--------x-4-4\---|-------------------|
E|-6\-------------x|2-2-------x-2------|

G|-----------------|-------------------|
D|-----------------|-------------------|
A|--------x-4-4\---|-----------4-------|
E|-6-6\-----------x|2-2--x-2-0---0-2/--|

G|-----------------|-------------------|
D|-----------------|-------------------|
A|--------x-4-4\---|-------------------|
E|-6-6\-----------x|2-2------x-2-------|


chorus:

G|-----------------|-------------------|
D|-----------------|-------------------|
A|-----------------|---------4-4-4-4---|
E|-2-2\---x-4-4\---|6-6-6-6------------|


G|-----------------|-------------------|
D|-----------------|-------------------|
A|-----------------|------------8-8----|
E|-2-2\---x-4-4\---|6-6-8-8-9-9--------|

G|-----------------|-------------------|
D|-----------------|-------------------|
A|-----------------|---------4-4-4-4---|
E|-2-2\---x-4-4\---|6-6-6-6------------|

G|-----------------|-------------------|
D|-----------------|-------------------|
A|-----------------|-------------------|
E|-2-2-----x-4-4---|x-2-2--------------|


Bridge:


G|-----------------|-------------------|
D|-----------------|-------------------|
A|-6-6-6-6-6-6-6-6-|-------------------|
E|-----------------|--4-4-4-4-4-4-4-4--|

G|-----------------|-------------------|
D|-----------------|-------------------|
A|-6-6-6-6-6-6-6-6-|----------/11-9-8--|
E|-----------------|--4-4-4-4---------9|

G|-----------------|-------------------|
D|-----------------|-------------------|
A|-6-6-6-6-6-6-6-6-|-------------------|
E|-----------------|--4-4-4-4-4-4-4-4--|

G|-----------------|-------------------|
D|-----------------|-------------------|
A|-6-6-6-6-8-8-8-8-|9-9-9-9-9\---------|
E|-----------------|-------------------|



Yeah Yeah, only guitar



chorus to end:

G|-----------------|-------------------|
D|-----------------|-------------------|
A|-----------------|---------4-4-4-4---|
E|-2-2\---x-4-4\---|6-6-6-6------------|


G|-----------------|-------------------|
D|-----------------|-------------------|
A|-----------------|------------x-8----|
E|-2-2\---x-4-4\---|6-6-8-8-9-9--------|

G|-----------------|-------------------|
D|-----------------|-------------------|
A|-----------------|---------4-4-4-4---|
E|-2-2\---x-4-4\---|6-6-6-6------------|

G|-----------------|-----------------------|
D|-----------------|-----------------------|
A|-----------------|-----------------------|
E|-2-2-2-2-4-4-4-4-|18-18-18-18-16-16-16-16|

G|-----------------|-------------------|
D|-----------------|-------------------|
A|-----------------|---------4-4-4-4---|
E|-2-2\---x-4-4\---|6-6-6-6------------|


G|-----------------|-------------------|
D|-----------------|-------------------|
A|-----------------|------------8-8----|
E|-2-2\---x-4-4\---|6-6-8-8-9-9--------|

G|-----------------|-------------------|
D|-----------------|-------------------|
A|-----------------|---------4-4-4-4---|
E|-2-2\---x-4-4\---|6-6-6-6------------|

G|-----------------|-------------------|
D|-----------------|-------------------|
A|-----------------|-------------------|
E|-2-2-----x-4-4---|x-2-2-------x-4-4\-|
            
Tabs too difficult? Try these video lessons and learn fast.




comments powered by Disqus
↑ Back to top | Tablatures and chords are parodies/interpretations of the original songs. You may use it for private study, scholarship, research or language learning purposes only