>
 >
Get It On

Get It On Bass Tabs

Krezip - Get It On chords, tabs, tablatures, lyrics

Guitar lessons | Add/correct | Request | Top 50 tabs Artists:  A B C D E F G H I J K L M N O P Q R S T U V W X Y Z 0-9

Get It On Bass Tabs – Krezip

CD, Sheet music, Poster

Do you like Get It On? Share with your friends now
Bass Tabs
krezip - get it on
------------------

Verse
-----

G)---------|---------|---------|---------|
D)---------|---------|---------|---------| 
A)-7-\-----|---------|---------|-----5-6-|
E)---------|-3-------|-5-------|-7-------|


Variation for the verse
------------------------

G)---------|---------|---------|-4-------|
D)---------|-5-------|-7-------|-----7-5-| 
A)-7-------|---------|---------|---------|
E)---------|---------|---------|---------|


Chorus ( overdrive )
--------------------

G)---------|---------|---------|---------|
D)-2---2-4-|-5---5-4-|-0---0---|-----5-4-|
A)---------|---------|---0---0-|-2-2-----|
E)---0-----|---3-----|---------|---------|


Guitar solo
-----------

G)---------|---------|---------|---------|---------|---------|---------|---------|
D)-2-2-2-2-|-5-5-5-5-|---------|---------|---------|---------|---------|---------|
A)---------|---------|-5-5-5-5-|-2-2-2-2-|---------|-------2-|-5-5-5-5-|-2-2-2-2-|
E)---------|---------|---------|---------|-0-0-0-2-|-3-3-3---|---------|---------|


Bridge
------

G)---------|-----4---|---------|---------|
D)-----5---|-5-5---5-|---------|-----4-5-|
A)-7-7---7-|---------|-----5---|-5-5-----|
E)---------|---------|-7-7---7-|---------|





Comments


Popular Krezip tabs & chords
Won Cry Bass Tabs
Go To Sleep Chords
I'll Be Gone Chords
Same Old Story Tabs
Sweet Goodbyes 1 Tabs
Venus Tabs
Everything And More Ukulele
I Would Stay Ukulele
Ordinary Day Ukulele
Sweet Goodbyes Ukulele


Song lyrics



↑ Back to top | Tablatures and chords are parodies/interpretations of the original songs. You may use it for private study, scholarship, research or language learning purposes only
© 2014 AZChords.com Contact us | Privacy policy | DMCA | Add/correct tabs | Request tabs | Top 50 tabs