» » »

Krezip, Don You Feel Afraid Bass tabs (ver.1)

Artists:  A B C D E F G H I J K L M N O P Q R S T U V W X Y Z # 

Don You Feel Afraid Bass tabs (ver.1)

Krezip Tabs
 Rating:
4/5 (4 votes)
Don	 You Feel Afraid lessons Tabs too difficult? Try these video lessons and learn fast
1
                
 means repeat note
~ means let ring

Verse1:

G|--------------------------------------------|
D|--------------------------------------------|
A|-------8--------10-8--------8--------10-8---|
E|-1~--8----1~--8-------1~--8----1~--8------8-| 


Pre-Chorus:

G|---------------|
D|---------------|
A|-4-6--4--------|
E|--------6--6-66|


Chorus:

G|----------------|
D|----------------|
A|----4>----------|
E|-1>----6>-4>-3>-|


Verse2:

G|----|
D|----|
A|-8>-|
E|----|


Pre-Chorus2:

G|--------------|
D|--------------|
A|-4>-6>--4>----|
E|-----------6>-|

Bridge:

G|-------------|-----------|
D|-------------|----5-6----|
A|-------4>-3>-|-4>-----3>-|
E|-6>-4>-------|-----------|


Ending:

G|-----------------------------------------------------|
D|-----------------------------------------------------|
A|------8-10-8-------------------13-15-13--------------|
E|-1~-8--------8-9--9-11-13-6-13----------13--4--3--1~-| 




Have fun playing, and please rate!
            
Submit corrections

comments powered by Disqus
↑ Back to top | Krezip Bass for Don You Feel Afraid. Lyrics for acoustic guitar and electric guitar. 1 Tablatures and chords are parodies/interpretations of the original songs. You may use it for private study, scholarship, research or language learning purposes only